Song name
# A B C D E F G H I J K L M N O P Q R S T U V W X Y Z

Dope - High tab

This Song is in Drop B Tunning. (B,f#,b,e,g#,c#). This song is awsome to jam to. 
Only thing i don't have note by note is the solo.


Chorus
-----------------------------|
-----------------------------|
-----------------------------|
--2---3-3----5--0------------|
--2---3-3----5--0------------|
--2---3-3----5--0------------|


Verse
---------|---------|-------------|-------------|----------|
---------|---------|-------------|-------------|----------|
---------|---------|-------------|-------------|----------|
---2-----|----2----|---3/5-----0-|-----2-------|--5--///--|
---2-----|----2----|---3/5-----0-|-----2-------|--5--///--|
---2-----|----2----|---3/5-----0-|-----2-------|--5--///--|



SOLO-JUST INPROVISE IN THE KEY OF C#. I'M NOT SURE WHAT MODE OR SCALE IS USED THOUGH.




What does it take to get......(bridge)
------------------------|
------------------------|
------------------------|
-----3/5---0------------|
-----3/5---0------------|
-----3/5---0------------|
Tap to rate this tab
 
# A B C D E F G H I J K L M N O P Q R S T U V W X Y Z