Song name
# A B C D E F G H I J K L M N O P Q R S T U V W X Y Z

Dope - Debonaire tab

Drop c# !!!

intro
D#|----------------|-----------------|----------------|----------------|
A#|----------------|-----------------|----------------|----------------|
F#|----------------|-----------------|----------------|----------------|
C#|-3-3-3-3-3-3-3-3|-3-3-3-3-3-3-3-0-|-3-3-3-3-3-3-3-3|-3-3-3-3-3-3-3-0|
G#|-3-3-3-3-3-3-3-3|-3-3-3-3-3-3-3-0-|-3-3-3-3-3-3-3-3|-3-3-3-3-3-3-3-0|
C#|-3-3-3-3-3-3-3-3|-3-3-3-3-3-3-3-0-|-3-3-3-3-3-3-3-3|-3-3-3-3-3-3-3-0|
pm  . . . . . . . .  . . . . . .       . . . . . . . .  . . . . . . .

x2
->

Riff 1
D#|----------------|-----------------|----------------|----------------|
A#|----------------|-----------------|----------------|----------------|
F#|----------------|-----------------|----------------|----------------|
C#|-0-6-5-0-0-0-3-5|-0-3-6-0---------|-0-6-5-0-0-0-3-5|-0-3-6-0--------|
G#|-0-6-5-0-0-0-3-5|-0-3-6-0---------|-0-6-5-0-0-0-3-5|-0-3-6-0--------|
C#|-0-6-5-0-0-0-3-5|-0-3-6-0---------|-0-6-5-0-0-0-3-5|-0-3-6-0--------|
pm

Verse:
just play the intro and Riff 1 aganin :-)

Riff 2
D#|----------------|-----------------|----------------|----------------|
A#|----------------|-----------------|----------------|----------------|
F#|----------------|-----------------|----------------|----------------|
C#|-3--------------|-2---------------|-0-6-5-0-0-0-3-5|-0-3-6-0--------|
G#|-3--------------|-2---------------|-0-6-5-0-0-0-3-5|-0-3-6-0--------|
C#|-3--------------|-2---------------|-0-6-5-0-0-0-3-5|-0-3-6-0--------|

and then Riff 1 again
Nice and simple :-) Please tell me what you think of it, since this is my first tab :-)
Tap to rate this tab
 
# A B C D E F G H I J K L M N O P Q R S T U V W X Y Z