Dope - Die Mf Die tab

This is my tab of Die mf die.

Guitar 1: Edsel
Guitar 2: Virus

(:): start/end verse.


Intro

Guitar 1
:-----------------------------------------------------------------:
:-----------------------------------------------------------------:
:-----------------------------------------------------------------: x2
:-----------------------------------------------------------------:
:-----------------------------------------------------------------:
:-1-0-0-0-1-0-0-0-------------------------------------------------:

Guitars 1 and 2
:---------------------------------------------------------------------------|
:---------------------------------------------------------------------------|
:---------------------------------------------------------------------------|
:---------------------------------------------------------------------------|
:---------------------------------------------------------------------------|
:-1-0-0-0-1-0-0-0-0-1-0-1-0-1-0-0-0-1-0-0-0-1-0-1-0-1-0-1-0-0-0-1-0-0-0-1-0-|

:---------------------------------------------------------------------------|
:---------------------------------------------------------------------------|
:---------------------------------------------------------------------------|
:--------------------5--------------------------------------------5---------|
:---------------------------------------------------------------------------|
:-1-0-1-0-0-0-1-0-0-0--1-0-0-0-1-0-0-0-1-0-1-0-1-0-1-0-0-0-1-0-0-0--1-0-0-0-|

:---------------------------------:
:---------------------------------:
:---------------------------------:
:--------------------------------5:
:---------------------------------:
:-1-0-0-0-1-0-1-0-1-0-0-0-1-0-0-0-:

Verse 1

Guitars 1 and 2
:--------------------------------------:
:--------------------------------------:
:-3-0-0-3-0-3-0-0-3-0-3-0-0-3-0-3-0-0-0:
:-3-0-0-3-0-3-0-0-3-0-3-0-0-3-0-3-0-0-0: x2
:-3-0-0-3-0-3-0-0-3-0-3-0-0-3-0-3-0-0-0:
:--------------------------------------:

Verse 2

Guitars 1 and 2
:--------------------------------------------------------------------------:
:--------------------------------------------------------------------------:
:--------------------------------------------------------------------------:
:--------5--------5--------5--------5-5-------5--------5--------5--------5-:
:--------------------------------------------------------------------------:
:-0-0-0-0--0-0-0-0--0-0-0-0--0-0-0-0---0-0-0-0--0-0-0-0--0-0-0-0--0-0-0-0--:

Pre-refrain

:---------------------------------:
:-5-5-5-7-5-5-5-8-5-5-5-6-5-5-----:
:-5-5-5-7-5-5-5-8-5-5-5-6-5-5-3-3-:
:-----------------------------3-3-:
:-----------------------------3-3-:
:---------------------------------:

Refrain (Die mf die, mf die!)

Guitars 1 and 2
:------------------------------------------------------------------------:
:------------------------------------------------------------------------:
:------------------------------------------------------------------------:
:--------5--------5--------5-------------5--------5-----------------5----:x2
:-------------------------------5----------------------------------------:
:-3-3-3-3--3-3-3-3--3-3-3-3--3-3--3-3-3-3--3-3-3-3--1-0-0-0-1-0-0-0------:

Repeat verse 2.
Repeat pre-refrain.
Repeat refrain.
Repeat x1 intro.
Repeat verse 1.
Repeat verse 2.
Repeat pre-refrain with more:
:----:
:----:
:----:
:-0-0:
:----:
:----:

Repeat refrain.
Repeat x2 intro.

That's all.
Tap to rate this tab
 
# A B C D E F G H I J K L M N O P Q R S T U V W X Y Z