Song name
# A B C D E F G H I J K L M N O P Q R S T U V W X Y Z

Dope - Everything Sucks tab

hi this is my first tab, most dudes right loads of stuff about themselves so im going to 
diferent and just jump right in.

Artist: Dope
song: Everything Sucks
Genre: American Metal
guitar type: distorted metal guitar


intro - synth

e:-------------------------------|
b:-------------------------------|
g:-------------------------------|
d:-xx-x-2-xx-x-2-xx-3------------|
a:-xx-x-2-xx-x-2-xx-3------------|
e:-xx-x-2-xx-x-2-xx-3------------| (x8)

verse 1 -


e:-----------------------|
b:-----------------------|
g:-----------------------|
d:-xxxx-2-0-xxxx-x-xx----|
a:-xxxx-2-0-xxxx-x-xx----|
e:-xxxx-2-0-xxxx-x-xx----| (x4)

the singing is added

e:-----------------------|
b:-----------------------|
g:-----------------------|
d:-xxxx-2-0-xxxx-x-xx----|
a:-xxxx-2-0-xxxx-x-xx----|
e:-xxxx-2-0-xxxx-x-xx----| (x8)


e:-----------------------|
b:-----------------------|
g:-----------------------|
d:-xxxx-2-0-xxxx-x-xx----|
a:-xxxx-2-0-xxxx-x-xx----|
e:-xxxx-2-0-xxxx-x-xx----|

e:-----------------------|
b:-----------------------|
g:-----------------------|
d:-xxxx-3-0-xxxx-x-xx----|
a:-xxxx-3-0-xxxx-x-xx----|
e:-xxxx-3-0-xxxx-x-xx----|

e:-----------------------|
b:-----------------------|
g:-----------------------|
d:-xxxx-2-0-xxxx-x-xx----|
a:-xxxx-2-0-xxxx-x-xx----|
e:-xxxx-2-0-xxxx-x-xx----|

e:-----------------------|
b:-----------------------|
g:-----------------------|
d:-xxxx-3-0-xxxx-x-xx----|
a:-xxxx-3-0-xxxx-x-xx----|
e:-xxxx-3-0-xxxx-x-xx----|

verse 2 -

this last bit is quite tricky to play in time and still sound good, so listen to the song.


e:------------------------|
b:------------------------|
g:------------------------|
d:--10--10-6-8--4--6-8-8--|
a:--10--10-6-8--4--6-8-8--|
e:--8---8--4-6--2--4-6-6--| (x4)


verse 1 -

e:-----------------------|
b:-----------------------|
g:-----------------------|
d:-xxxx-2-0-xxxx-x-xx----|
a:-xxxx-2-0-xxxx-x-xx----|
e:-xxxx-2-0-xxxx-x-xx----| (x3)

e:-----------------------|
b:-----------------------|
g:-----------------------|
d:-xxxx-3-0-xxxx-x-xx----|
a:-xxxx-3-0-xxxx-x-xx----|
e:-xxxx-3-0-xxxx-x-xx----|

e:-----------------------|
b:-----------------------|
g:-----------------------|
d:-xxxx-2-0-xxxx-x-xx----|
a:-xxxx-2-0-xxxx-x-xx----|
e:-xxxx-2-0-xxxx-x-xx----| (x5)

e:-----------------------|
b:-----------------------|
g:-----------------------|
d:-xxxx-3-0-xxxx-x-xx----|
a:-xxxx-3-0-xxxx-x-xx----|
e:-xxxx-3-0-xxxx-x-xx----|

e:-----------------------|
b:-----------------------|
g:-----------------------|
d:-xxxx-2-0-xxxx-x-xx----|
a:-xxxx-2-0-xxxx-x-xx----|
e:-xxxx-2-0-xxxx-x-xx----| (x2)

e:-----------------------|
b:-----------------------|
g:-----------------------|
d:-xxxx-3-0-xxxx-x-xx----|
a:-xxxx-3-0-xxxx-x-xx----|
e:-xxxx-3-0-xxxx-x-xx----|

verse 2 -

e:------------------------|
b:------------------------|
g:------------------------|
d:--10--10-6-8--4--6-8-8--|
a:--10--10-6-8--4--6-8-8--|
e:--8---8--4-6--2--4-6-6--| (x4)


intro -

e:-------------------------------|
b:-------------------------------|
g:-------------------------------|
d:-xx-x-2-xx-x-2-xx-3------------|
a:-xx-x-2-xx-x-2-xx-3------------|
e:-xx-x-2-xx-x-2-xx-3------------| (x12)


verse 2 -

e:------------------------|
b:------------------------|
g:------------------------|
d:--10--10-6-8--4--6-8-8--|
a:--10--10-6-8--4--6-8-8--|
e:--8---8--4-6--2--4-6-6--| (x4)

verse 1 -

e:-----------------------|
b:-----------------------|
g:-----------------------|
d:-xxxx-2-0-xxxx-x-xx----|
a:-xxxx-2-0-xxxx-x-xx----|
e:-xxxx-2-0-xxxx-x-xx----|  (x3)

e:-----------------------|
b:-----------------------|
g:-----------------------|
d:-xxxx-2-0-3-0-2-0------|
a:-xxxx-2-0-3-0-2-0------|
e:-xxxx-2-0-3-0-2-0------|

and thats the end.
try using effects pedals or messsing around with your amp to create the perfect metal distortion.

if you have noticed theres lead guitar in verse two the second and third time its 
but i cant quite work it out.

thanks for reading...
Tap to rate this tab
 
# A B C D E F G H I J K L M N O P Q R S T U V W X Y Z