Dope - Now Is The Time tab

Artist: Dope
Title: Now is the time.
Album: Group of therapy (2003). The third Dope's album.

Guitar tab.
Guitarist: Virus.

This is my guitar tab. The song is easy; there are two types of effect. The most aggressive of two
is "M.E." (Metal Effect). Other effect is "N.E." (Normal effect).

Intro (M.E.)/ Verse (N.E.).
E:---------------------------------------------------------------------:
B:---------------------------------------------------------------------:
G:---------------------------------------------------------------------:
D:-0-0--0-3/0----3-3----3/0---3-3----0-0-0-3/0----3-3----3/0----0-3-0-0:
A:-0-0--0-3/0----3-3----3/0---3-3----0-0-0-3/0----3-3----3/0----0-3-0-0:
E:-0-0--0-3/0----3-3----3/0---3-3----0-0-0-3/0----3-3----3/0----0-3-0-0:

Chorus (M.E.)
E:------------------------------:
B:------------------------------:
G:------------------------------: x2
D:-0-0-3---0-0-3---0-0-3---0-3-0:
A:-0-0-3---0-0-3---0-0-3---0-3-0:
E:-0-0-3---0-0-3---0-0-3---0-3-0:

Bridge (M.E.)
E:-------------------------------:
B:-------------------------------:
G:-------------------------------: x2
D:-3/0----3/0----3/0----0-3-0-3-3:
A:-3/0----3/0----3/0----0-3-0-3-3:
E:-3/0----3/0----3/0----0-3-0-3-3:

That's all.
Tap to rate this tab
 
# A B C D E F G H I J K L M N O P Q R S T U V W X Y Z