Song name
# A B C D E F G H I J K L M N O P Q R S T U V W X Y Z

Dope - Debonaire tab

INTRO
-------------------------------|
-------------------------------|
-------------------------------|
-------------------------------|   x4
-0-6-3-0-----0--0-3-5-0-3-6-0--|
-0-6-3-0-----0--0-3-5-0-3-6-0--|

Verse 1
---------------------------------------------------------------|
---------------------------------------------------------------|
---------------------------------------------------------------|
---------------------------------------------------------------|
----------------------------3-0----------------------------3-0-|
----------------------------3-0----------------------------3-0-|
"i dont need diamond rings or high priced suits that shine"

---------------------------------------------------------------|
---------------------------------------------------------------|
---------------------------------------------------------------|
---------------------------------------------------------------|
----------------------------3-0----------------------------3-0-|
----------------------------3-0----------------------------3-0-|
"limosines and flashy things or ancient bottled wine"

--------------------------------------------------------------|
--------------------------------------------------------------|
--------------------------------------------------------------|
--------------------------------------------------------------|
--0-6-3-0-----0--0-3-5-0-3-6-0---0-6-3-0-----0--0-3-5-0-3-6-0-|
--0-6-3-0-----0--0-3-5-0-3-6-0---0-6-3-0-----0--0-3-5-0-3-6-0-|
"designer names and lavish things and million dollar hair"

--------------------------------------------------------------|
--------------------------------------------------------------|
--------------------------------------------------------------|
--------------------------------------------------------------|
--0-6-3-0-----0--0-3-5-0-3-6-0---0-6-3-0-----0--0-3-5-0-3-6-0-|
--0-6-3-0-----0--0-3-5-0-3-6-0---0-6-3-0-----0--0-3-5-0-3-6-0-|
"bonny dames without a brain I never really cared"


--------------------------------------------------------|
--------------------------------------------------------|
--------------------------------------------------------|
--------------------------------------------------------|
-7---------6---------------0-6-3-0-----0--0-3-5-0-3-6-0-|
-7---------6---------------0-6-3-0-----0--0-3-5-0-3-6-0-|
"i dont care nothin about it"

-------------------------------|
-------------------------------|
-------------------------------|
0-6-3-0-----0--0-3-5-0-3-6-0---|
0-6-3-0-----0--0-3-5-0-3-6-0---|

Verse 2 (same as first)
Tap to rate this tab
 
# A B C D E F G H I J K L M N O P Q R S T U V W X Y Z