Song name
# A B C D E F G H I J K L M N O P Q R S T U V W X Y Z

Dope - Take Your Best Shot tab

I saw some of the tabs posted of this song and they're part right, part wrong.
I found this on the official Dope fansite. I've been playing this song for a few
years now and it's great to play. It's all correct
Take Your Best Shot by Dope
Album: Life
Tuning: Drop D (D A D G B E)

Intro                 part 2
E|-------------------|-------------------|
B|-------------------|-----9-------------|
G|-------------------|-7-7---7-----------|
D|-------------------|---------0-0-3-0---|
A|-------------------|-------------------|
D|-3-0000-3-0000-5-6|--------------------|
PM - ---- - ---- - -

Chorus
E|---------------------------------------------------------|
B|---------------------------------------------------------|
G|---------------------------------------------------------|
D|-0-0-0-1-0-3--0-0-0-1-0-6--0-0-0-1-0-3--0-0-0-1-0-6------|
A|-0-0-0-1-0-3--0-0-0-1-0-6--0-0-0-1-0-3--0-0-0-1-0-6------|
D|-0-0-0-1-0-3--0-0-0-1-0-6--0-0-0-1-0-3--0-0-0-1-0-6------|

Verse
E|----------------------------------------------------------|
B|----------------------------------------------------------|
G|----------------------------------------------------------|
D|-0--x-xxx-x-3--0--x-xxx-x-6--0--x-xxx-x-3--0--6--0--3-----|
A|-0--x-xxx-x-3--0--x-xxx-x-6--0--x-xxx-x-3--0--6--0--3-----|
D|-0--x-xxx-x-3--0--x-xxx-x-6--0--x-xxx-x-3--0--6--0--3-----|

Pre-Chorus
E|---------------------------------------|
B|---------------------------------------|
G|---------------------------------------|
D|-1-0-xxxx-3-0-xxxx-6-0-xxxx-3-0-6------|
A|-1-0-xxxx-3-0-xxxx-6-0-xxxx-3-0-6------|
D|-1-0-xxxx-3-0-xxxx-6-0-xxxx-3-0-6------|

Interlude
E|-------------------------------------------|
B|-------------------------------------------|
G|-------------------------------------------|
D|-1-0--x-x-x-x-1-0--x-x-x-1-0--x-x-x-1-0----|
A|-1-0--x-x-x-x-1-0--x-x-x-1-0--x-x-x-1-0----|
D|-1-0--x-x-x-x-1-0--x-x-x-1-0--x-x-x-1-0----|

Song Structure
This is life
Intro
Chorus
Verse
Pre-Chorus
Chorus
Intro part 2
Verse
Pre-Chorus
Chorus
Intro
Interlude
Chorus
Intro part 2
Tap to rate this tab
# A B C D E F G H I J K L M N O P Q R S T U V W X Y Z