Song name
# A B C D E F G H I J K L M N O P Q R S T U V W X Y Z

Dope - Spin Me Round tab

Artist: Dope
Album: Felons And Revolutionaries
Title: Spin Me Round

Intro
----------------------------------------------------------------------------|
----------------------------------------------------------------------------|
----------------------------------------------------------------------------|
-4-4-4-4--7-7--2-2------4-4-4-4-4-4-4-4--7-7-7-7--2-2-2-2--9-9-9-9--2-2-2-2-|
-4-4-4-4--7-7--2-2------4-4-4-4-4-4-4-4--7-7-7-7--2-2-2-2--9-9-9-9--2-2-2-2-|
-4-4-4-4--7-7--2-2------4-4-4-4-4-4-4-4--7-7-7-7--2-2-2-2--9-9-9-9--2-2-2-2-|
                     [PM]...................................................

Verse
----------------------------------------------------------------------------|
----------------------------------------------------------------------------|
----------------------------------------------------------------------------|
-2/4444---2/4444--7/9999--7/9999--------------------------------------------|
-2/4444---2/4444--7/9999--7/9999--------------------------------------------|
-2/4444---2/4444--7/9999--7/9999--------------------------------------------|
    ...      ...     ...     ...

Bridge "All I know is that to me you look like...."
----------------------------------------------------------------------------|
----------------------------------------------------------------------------|
----------------------------------------------------------------------------|
-2/4-4-4-4--4/7-7-7-7--7/9-9-9-9--9/11-11-11-11--11/2/4---------------------|
-2/4-4-4-4--4/7-7-7-7--7/9-9-9-9--9/11-11-11-11--11/2/4---------------------|
-2/4-4-4-4--4/7-7-7-7--7/9-9-9-9--9/11-11-11-11--11/2/4---------------------|

Chorus   "You spin me right round baby right round......"
----------------------------------------------------------------------------|
----------------------------------------------------------------------------|
----------------------------------------------------------------------------|
-4-4-4-4--7-7-7-7--2-2-2-2--4-4-4-4--9-9-9-9--2-2-2-2-----------------------|
-4-4-4-4--7-7-7-7--2-2-2-2--4-4-4-4--9-9-9-9--2-2-2-2-----------------------|
-4-4-4-4--7-7-7-7--2-2-2-2--4-4-4-4--9-9-9-9--2-2-2-2-----------------------|
 ......   ......   ......    ......  .......  .......
Tap to rate this tab
 
# A B C D E F G H I J K L M N O P Q R S T U V W X Y Z