Guitaretab - guitar tabs
Song name
# A B C D E F G H I J K L M N O P Q R S T U V W X Y Z

Dope - Youre Full Of Shit tab

Ok this is my first tab
Youíre full of shit (life bonus track) by Dope
This is basically all you need except for the solo.
Intro (play 4x)
|---------------------|---------------------|------------------|
|---------------------|---------------------|------------------|
|---------------------|---------------------|------------------|
|---------------------|---------------------|------------------|
|---------------5-----|----------3----------|------------------|
|-0--3--0--5-6-0--6---|5-0--3--5------------|------------------|
        .      .  

[ Tab from: http://www.guitaretab.com/d/dope/92566.html ]
chorus (play 4x)
|---------------------|---------------------|------------------|
|---------------------|---------------------|------------------|
|---------------------|---------------------|------------------|
|---------------------|---------------------|------------------|
|--------5------------|---------------------|------------------|
|0-0-3-0ó-5-----------|---------------------|------------------|



then
|---------------------|---------------------|------------------|
|---------------------|---------------------|------------------|
|---------------------|---------------------|------------------|
|---------------------|---------------------|------------------|
|---------------------|---------------------|------------------|
|-6---5---0-0-0-0-----|---------------------|------------------|
          . . . .

|---------------------|---------------------|------------------|
|---------------------|---------------------|------------------|
|---------------------|---------------------|------------------|
|---------------------|---------------------|------------------|
|---------------------|---------------------|------------------|
|-3-0-3-5-6-5-3-0-----|---------------------|------------------|

I havenít figured out the solo, but the rhythm guitar just repeats the verse a few times

Related for Youre Full Of Shit tab