Song name
# A B C D E F G H I J K L M N O P Q R S T U V W X Y Z

Doraemon - Doraemon tab

Doraemon

e|-8-7-5-5-7-8-7-5-5-7---8-7-5-5-7-8-7-5--|10-8-7--7-8-10-8-7--7-8-----------|
B|------8---------8-----------8---------8-|-7----10----------10--------------|
G|-5---------5-----------5---------5------|-------------7--------------------|
D|----------------------------------------|----------------------------------|
A|----------------------------------------|----------------------------------|
E|----------------------------------------|----------------------------------|

e|10-8-7--7-8-7-7-8-9-10-|5-7-8-----5---7---------5-------0-1-3---0-10-9-8-7-|
B|------10---------------|6-----6-88-10-5-6-8-6-8--3-5-6-1----1-3-----------|
G|-7------------0--------|------7----9---5-----7----4----------2-----0-------|
D|-----------------------|---------------------------------------------------|
A|-----------------------|---------------------------------------------------|
E|-----------------------|---------------------------------------------------|

e|-----------------------X--X---|------5---3-3-5-3---1-0---------5-7-7-5---1-|
B|11-10-9-8--------------X--X---|-----5--5---------5-----3-----6---------8---|
G|---------11-10-9-8--7--X--X---|-5-5------------------------7---------------|
D|------------------------------|5-------------------0-----7-----------------|
A|--------------------|--|--|---|3-----3-----3-----------0-5-------5---------|
E|--------------------|--|--|---|---3------3-----3---------------------5---1-|

e|1-0--------------------/\-3---|------5---3-3-5-3---1-0---------5-7-7-5---1-|
B|------0--1-3------------|-4---|-----5--5---------5-----3-----6---------8---|
G|----2------4------------|-4---|-5-5------------------------7---------------|
D|3------3----------------|-3---|5-------------------0-----7-----------------|
A|--------------5---------|-5---|3-----3-----3-----------0-5-------5---------|
E|----2------3------3-------3---|---3------3-----3---------------------5---1-|

e|1-0----------------5--5-------5-----------3---5---3------------3----------3-|
B|----3---3-1------5-6----8-6-8---8-3-5-6-3-5-5-6-------3-5-6--3-----------5--|
G|--3---4---0------3-5--------------4-------4-3-4-------4--------5------5-5---|
D|--------5--------5----------------3-------5-5---------3-----------5-5-------|
A|----------3--2-3-4-5----------------------3-4-5----------------3------------|
E|------3---------------------------3-------------------3---------------------|

e|/\5--------------7-5-3-5-3----/\----3-5-0-----------------------------------|
B|-|6--8--6----3-------------6---|3-----------3--1----------1-1-0-0-----------|
G|-|5----------4-----------------|4--------------0------------------2-2-0-0-2-|
D|-|7----------3-----------------|5----------------2--------------------------|
A|-|5----------------------------|5--------------3-------2--3---2---0---3---1-|
E|-|-----------3-----------------|3-------------------3-----------------------|

e|---------------------------------------------------------------------------|
B|--0--0--1------------------------------------------------------------------|
G|2-------0------------------------------------------------------------------|
D|--------2------------------------------------------------------------------|
A|--------3------------------------------------------------------------------|
E|--3------------------------------------------------------------------------|

Facebook : https://www.facebook.com/bdm.ozzlest
Tap to rate this tab
 
# A B C D E F G H I J K L M N O P Q R S T U V W X Y Z