Song name
# A B C D E F G H I J K L M N O P Q R S T U V W X Y Z

Doraemon - Doraemon tab

You know doraemon opening song, this is the tab. I think it easy enough
Thanks For Watch (This is my first tab)

E|----------7---5--5-7-5--------------------7-7-5----------------|
B|--------7---7----------7-8-7-5------5-5-8-------8-6-5----------|
G|----7-7---------------------------------------------------5-7--|
D|--7-------------------------------7-------------------7-9------|
A|---------------------------------------------------------------|
E|---------------------------------------------------------------|

E|----------7---5--5-7-5--------------------7-7-5----------------|
B|--------7---7----------7-8-7-5------5-5-8-------8-6-6----------|
G|----7-7-----------------------------------------------7---7-5--|
D|--7-------------------------------7---------------------9------|
A|---------------------------------------------------------------|
E|---------------------------------------------------------------|

E|-5-5-----5--------------7-5------------|
B|-----8-6---8---5-7---8--------5-7---8--|
G|-------------7-----7--------7-----7----|
D|---------------------------------------|
A|---------------------------------------|
E|---------------------------------------|

E|-7-5------7-5---5------5-7-------|
B|-----8--------8---8-6------5-----|
G|--------7--------------------7-5-|
D|---------------------------------|
A|---------------------------------|
E|---------------------------------|


E|-7-5------7-5---5------5-7-------|
B|-----8--------8---8-6------5-----|
G|--------7--------------------7-5-|
D|---------------------------------|
A|---------------------------------|
E|---------------------------------|


E|-7-5------7-5---5------5-7-------|
B|-----8--------8---8-6------5-----|
G|--------7--------------------7-5-|
D|---------------------------------|
A|---------------------------------|
E|---------------------------------|

E|-----------5--5-7--9-10-9--------|
B|-----5-6-7-----------------------|    
G|-5-7-----------------------------|
D|---------------------------------|
A|---------------------------------|
E|---------------------------------|
Tap to rate this tab
 
# A B C D E F G H I J K L M N O P Q R S T U V W X Y Z