Song name
# A B C D E F G H I J K L M N O P Q R S T U V W X Y Z

Doremidan - Akai Kutsu tab

-------------------------------------------------------------------------------
			     AKAI KUTSU - DOREMIdan
-------------------------------------------------------------------------------
Tabbed by: baziobazio
Email: baziobazio@gmail.com

Tuning: Standard

NOTE: Many of the notes can be played alternately as open strings (i.e. the fifth fret 
B as the open E string) but it sounds more like the song if you play it as written.

DOREMIdan official hp: http://www.doremidan.com/pc/index.html


e|------------------------------------------------|
B|----5--------5--------5----5-------5-------5----|
G|-------4--------4------------4-------4----------|
D|-4--------4--------4----4-------4-------4-------|
A|------------------------------------------------|
E|------------------------------------------------|

e|------------------------------------------------|
B|----5--------5--------5----5-------5-------5----|
G|-------4--------4-------------4------4----------| PLAY BOTH LINES
D|-2--------2--------2-----0------0--------0------| 5x
A|------------------------------------------------|
E|------------------------------------------------|

| /  slide up
| \  slide down
| h  hammer-on
| p  pull-off
| ~  vibrato
| +  harmonic
| x  Mute note
===============================================================================
Tap to rate this tab
 
# A B C D E F G H I J K L M N O P Q R S T U V W X Y Z