Song name
# A B C D E F G H I J K L M N O P Q R S T U V W X Y Z

Doris Day - Que Sera Sera tab

this versions for the pickers in the key of C, this is the vocal harmony tabbed, hopefully it 
isnt too impalpable, i'm pretty sure you can play this and catch on


              "Que Sera Sera"  by Doris Day 
Verse:
|-------------|---------------------|-------------------|------------------|
|-------------|---------------------|-------------------|------------------|
|-------------|---------------------|-------------------|------------------|
|-------------|---------------------|-------------------|------------------|
|------0---2--|--3~~~-0--3~~~~-0--3-|--0--3--0--5--3~~~-|-3--5-------------|
|--3----------|---------------------|-------------------|-------0--3~~~~~~-|


|-------------------|---------------|--------------|-------------|
|-------------------|---------------|--------------|-------------|
|-------------------|---------------|--------------|-------------|
|--2--3--5--3--2~~~-|-0--2--3--2~~~-|--0--2--3--2--|-------------|
|-------------------|---------------|--------------|--2--3~~~~~~-|
|-------------------|---------------|--------------|-------------|


Chorus:

|-----------------------|----------------------------|----------------------|
|-----------------------|----------------------------|----------------------|
|-----------------------|----------------------------|----------------------|
|--5~~~~~-3--2--0--2~~~-|-2--5--3--2--0~~~----0~~~~~-|-0--3--2--0-----------|
|-----------------------|------------------2---------|-------------3~~~~-0--|
|-----------------------|----------------------------|----------------------|

|----------|-------------------------|
|----------|-------------------------|
|----------|-------------------------|
|----------|--0--2--3~~~~------------|
|--3~~~~~~-|---------------2-3~~~~~--|
|----------|-------------------------|

REPEAT


and thats all i have of the song that was made famous in the 1955 classic Alfred Hitchcock film
"The Man Who Knew Too Much"! i hope this helps! i wasn't happy with the chords for this song so 
i just tabbed out the vocals, witch is one of my favorite melodies.


-Bertman (the Toast!)
Tap to rate this tab
 
# A B C D E F G H I J K L M N O P Q R S T U V W X Y Z