Song name
# A B C D E F G H I J K L M N O P Q R S T U V W X Y Z

Doris Day - Secret Love chords

Highlighted       Show chord diagrams
Secret Love: Doris Day (1954)

INTRO: Aadd9 Amaj7 A6 Amaj7 (x2)

#1.
Aadd9  Amaj7         A6    Amaj7
Once I had a secret love..
     Aadd9     F#m7            Bm   E
that lived within the heart of me..
Bm       E              Bm   E
All too soon my secret love..
  E      E/G#           Aadd9   Amaj7
became impatient to be free.

#2.
Aadd9  Amaj7              A6   Amaj7
So, I  told the friendly star..
    Aadd9     F#m7          Bm  E 
the way that dreamers often do..
Bm        E            Bm   E
Just how wonderful you are..
     E6     [ch]E7/G#[/ch]            Aadd9   Amaj7
and why I'm so in love with you..

CHORUS: 
F#m     B7                E      E6      
Now, I shout it from the highest hills..
Em/G  A9              D/F#   [ch]Dm6/F[/ch]
even told the golden daffo..dils.
    A/E    [ch]Amaj7/E[/ch]          F#7sus4  [ch]F#7/Bb[/ch]
At last my heart's an open door..
       Bm                E         Aadd9
and my secret love's no secret anymore.


(INTERLUDE:) 
.. Amaj7 A6 Amaj7
Aadd9 F#m7 Bm  E
Bm  E  Bm  E
E  E/G# A  Amaj7

CHORUS: 
F#m     B7                E      E6      
Now, I shout it from the highest hills..
Em/G  A9             D/F#   [ch]Dm6/F[/ch]
even told the golden daffo..dils.
   A/E     [ch]Amaj7/E[/ch]         F#7sus4   [ch]F#7/Bb[/ch] 
At last my heart's an open door..
       Bm                E         A
and my secret love's no secret anymore.

               
OUTRO: Aadd9 Amaj7 A6 Amaj7 Aadd9 (Fade.)


Chords used:

 Aadd9 Amaj7 A6 F#m7 Bm  E E/G# F#m B7 E6 Em/G A9 D/F# [ch]Dm6/F[/ch] A/E [ch]Amaj7/E[/ch] 
e--0----0----0---2----2--0--0----2--2--0---0---0---1----1-----0----0--
b--0----0----0---2----0--0--0----2--0--2---0---2---2----0-----2----2--
G--6----6----6---2----2--1--4----2--2--1---0---4---1----2-----2----1--
D--7----6----4---2----0--2--2----4--1--2---2---5---0----0-----x----x--
A--0----0----0---4----2--3--x----4--2--x---x---0---x----x-----x----x--
E--x----x----x---2----x--0--4----2--x--0---3---x---2----1-----0----0--


  F#7sus4 [ch]F#7/Bb[/ch]
e----2------0--
b----2------2--
G----4------3--
D----2------4--
A----4------5--
E----2------x--

Tap to rate this tab
# A B C D E F G H I J K L M N O P Q R S T U V W X Y Z