Song name
# A B C D E F G H I J K L M N O P Q R S T U V W X Y Z

Doris Henson - Most tab

(http://www.dorishenson.com) or (http://www.myspace.com/dorishenson)

Artist: Doris Henson
Song: The Most
Tabbed by: lucharbach

Note: This tab might not be 100% accurate but its pretty close.

 /  slide up
   slide down
 h  hammer-on
 p  pull-off
 ~  vibrato
 +  harmonic
 x  Mute note

Verse1:
e|-----------------|
B|-----------------|
G|--7--77----------|
D|--7--77----------|
A|--5--55----------|
E|-----------------|

Chorus:
e|---------------------|
B|---------------------|
G|--7/9\5-5/9\7--------|
D|--7/9\5-5/9\7--------|
A|--5/7\3-3/7\5--------|
E|---------------------|

Verse2:
e|-----------------|
B|-----------------|
G|--7--57----------|
D|--7--57----------|
A|--5--35----------|
E|-----------------|

Bridge:
e|----------------------------------------------------|
B|----------------------------------------------------|
G|----------------------------------------------------|
D|------------------------------------------7--10--7--|
A|-5--7-7--8--7---5--7--8-8--7--5--7-7--8--7----------|
E|----------------------------------------------------|

e|-------------------------------------------------------------------------|
B|-------------------------------------------------------------------------|
G|-------------------------------------------------------------------------|
D|---------------------------------------------7--10-----11-11-11-11-11-11-|
A|-5--7-7--8--7---5--7-7--10--5---5--7-7--8--7---------7-------------------|
E|-------------------------------------------------------------------------|

e|----------------------|
B|----------------------|
G|----------------------|
D|-11-11-11-12~---------|
A|----------------------|
E|----------------------|

Riff:Pick this till the end
e|----
B|----
G|----
D|----
A|-7~-
E|----

(IN ORDER)
verse1:
chorus:
verse2:
chorus:
bridge:
verse3:
chorus:
bridge:
Riff:

If you have any questions contact me at lucharbach@yahoo.com
Tap to rate this tab
# A B C D E F G H I J K L M N O P Q R S T U V W X Y Z