Song name
# A B C D E F G H I J K L M N O P Q R S T U V W X Y Z

Dorleac - Tommy And The Whale tab

Dorleac  Tommy and the Whale
Intro
e|---------------------------------|
B|-----6---6---6----6--------------|
G|-----6---6---6----6--------------|
D|---------------------------------| x2
A|---4---4---4---4-----------------|
E|---------------------------------|
Verse I
e|------------6---6---6---6---6---6-----------|
B|----6---6---6---6---6---6---6---6-----------|
G|----6---6-----------------------------------|
D|--------------------------------------------|
A|--4---4-------------------------------------|
E|-----------6---6---6---6---6---6------------|
   In a dream I took a swim 

e|----2---2---4---4---4---4---4---4-----------|
B|----2---2---4---4---4---4---4---4-----------|
G|--------------------------------------------|
D|--------------------------------------------|
A|--------------------------------------------|
E|--2---2---4---4---4---4---4---4-------------| 
      to the isle at the end.

e|----4---4---4---4---6---6---6-----------|
B|----4---4---4---4---6---6---6-----------|
G|----------------------------------------|
D|----------------------------------------|
A|----------------------------------------|
E|--4---4---4---4---6---6---6---4---------| 
   Say that don't be mad I'm a stranger in this land, 

e|----2---2---2---2-------------4---4---4---4-------|
B|----2---2---2---2-----6---6---4---4---4---4-------|
G|----------------------6---6-----------------------|
D|--------------------------------------------------|
A|------------------4-----4-------------------------|
E|--2---2---2---2-------------4---4---4---4---------|
       waitin' for the things to come. 

e|----2---2---2---2---------------------------4---4---4---4----|
B|----2---2---2---2---6---6---7---7---7---7---4---4---4---4----|
G|--------------------6---6---8---8---8---8--------------------|
D|-------------------------------------------------------------|
A|------------------4---4---6---6---6---6----------------------|
E|--2---2---2---2---------------------------4---4---4---4------|
      Breathin' in and breathin' out.            -uhu- 

Verse II
In a dream I took a swim there was nothing left to prove. 
Doctor tell me please I'm a stranger in this life, 
waiting for the things to come. 

Breathin' in and breathin' out. 

bridge
e|----2---2---2---2-------------4---4---4---4-------|
B|----2---2---2---2-----6---6---4---4---4---4-------|
G|----------------------6---6-----------------------|
D|--------------------------------------------------|
A|------------------4-----4-------------------------|
E|--2---2---2---2-------------4---4---4---4---------|

e|----2---2---2---2---------------------------4---4---4---4----|
B|----2---2---2---2---6---6---7---7---7---7---4---4---4---4----|
G|--------------------6---6---8---8---8---8--------------------|
D|-------------------------------------------------------------|
A|------------------4---4---6---6---6---6----------------------|
E|--2---2---2---2---------------------------4---4---4---4------|
Verse III

In a dream I travelled far to a kingdom made of tears. 
Mother tell me please this is all we have to say. 

Breathin' in and breathin' out.
Breathin' in and breathin' out.


https://www.facebook.com/pages/Dorleac/151421021550671?fref=ts

http://www.spinvis.nl/archief/2010/08/26/dorleac/
Tap to rate this tab
# A B C D E F G H I J K L M N O P Q R S T U V W X Y Z