Song name
# A B C D E F G H I J K L M N O P Q R S T U V W X Y Z

Dorm Patrol - Alright tab

-------------------------------------------------------------------------------
                             Alright - Dorm Patrol
-------------------------------------------------------------------------------
Tabbed by: sajv4H
E-mail: Danskfatol@live.com                     

Tuning: D-standard, DGCFAd


Rhythm guitar:
Intro
-It's alright,right...

e|---------------------------------------------------------------------------|
B|---------------------------------------------------------------------------|
G|---------------------------------------------------------------------------|
D|--5------------------------------------------------------------------------|
A|--3------5------3--7--5-x5-x5-x5-x5x5--------------------------------------|
E|---------3------1--5--3-x3-x3-x3-x3x3--------------------------------------|

Intro figure 1:
e|---------------------------------------------------------------------------|
B|---------------------------------------------------------------------------|
G|---------------------------------------------------------------------------|
D|--55-55-55-55--------------------------------------------------------------|
A|--33-33-33-33-x5x5x5-33-33-33-33-x5x5x5------------------------------------|
E|--------------x3x3x3-11-11-11-11-x3x3x3--repeat x2-------------------------|

Intro figure 2:
e|---------------------------------------------------------------------------|
B|---------------------------------------------------------------------------|
G|---------------------------------------------------------------------------|
D|--55555555555--------------------------------------------------------------|
A|--33333333333-x5x5x5-33333333333-x5x5x5------------------------------------|
E|--------------x3x3x3-11111111111-x3x3x3--repeat x2-------------------------|

Lead guitar:
Intro
-It's alright,right...

e|--15------15---------------------------------------------------------------|
B|--13------13---------------------------------------------------------------|
G|--12------12-----5--9--7--777-77-------------------------------------------|
D|---------------------------------------------------------------------------|
A|-----------------3--7--5--555-55-------------------------------------------|
E|---------------------------------------------------------------------------|

Intro figure 1
e|---------------------------------------------------------------------------|
B|---------------------------------------------------------------------------|
G|--12-12--9-9--7-7--5-5--5/7------------------------------------------------|
D|---------------------------------------------------------------------------|
A|--10-10--7-7--5-5--3-3--3/5--repeat x4-------------------------------------|
E|---------------------------------------------------------------------------|

Rhythm guitar:
Vers 1
-Here i and im...

e|---------------------------------------------------------------------------|
B|---------------------------------------------------------------------------|
G|---------------------------------------------------------------------------|
D|--555----------------------------------------------------------------------|
A|--333------555------333------5-hold----------------------------------------|
E|-----------333------111------3-hold----------------------------------------|

e|---------------------------------------------------------------------------|
B|---------------------------------------------------------------------------|
G|---------------------------------------------------------------------------|
D|--55555555x----------------------------------------------------------------|
A|--33333333x55555555x33333333x555555555-------------------------------------|
E|-----------33333333x11111111x333333333-------------------------------------|

lead guitar:
Vers 1, 
Last bar, before chorus
-And it's alright...

e|--------------15------------------------15---------------------------------|
B|--------13----------13------------13----------b13--------------------------|
G|--12-12----12----12----12---12-12----12----12------------------------------|
D|---------------------------------------------------------------------------|
A|---------------------------------------------------------------------------|
E|---------------------------------------------------------------------------|

Rhythm guitar:
Chorus
-It's alright,right...  

e|---------------------------------------------------------------------------|
B|---------------------------------------------------------------------------|
G|---------------------------------------------------------------------------|
D|--555555555----------------------------------------------------------------|
A|--333333333-555555555-333333333-555555555--3--7--5-3x-3x-3x--3x3x----------|
E|------------333333333-111111111-333333333--1--5--3-3x-3x-3x--3x3x----------|

Lead guitar:
Chorus

e|--15-15-15-15-15-15-15-15-15-15-15-15-15-----------------------------------|
B|--13-13-13-13-13-13-13-13-13-13-13-13-13-----------------------------------|
G|--12-12-12-12-12-12-12-12-12-12-12-12-12---5--9--7--777-77-----------------|
D|---------------------------------------------------------------------------|
A|-------------------------------------------3--7--5--555-55-----------------|
E|---------------------------------------------------------------------------|

Lead & Rhythm guitar:
Intro figure 1

-

Verse 2

e|---------------------------------------------------------------------------|
B|---------------------------------------------------------------------------|
G|---------------------------------------------------------------------------|
D|--5-hold-----///555555555--------------------------------------------------|
A|--3-hold-----///333333333555555555333333333555555555-----------------------|
E|-------------------------333333333111111111333333333-----------------------|

Lead guitar:
Verse 2, 2nd part

e|---------------------------------------------------------------------------|
B|--------13----13----12/13-------13----13----12/13--------------------------|
G|--12-12----12----12-------12-12----12----12--------repeat x3---------------|
D|---------------------------------------------------------------------------|
A|---------------------------------------------------------------------------|
E|---------------------------------------------------------------------------|

e|--------------15------------------------15---------------------------------|
B|--------13----------13------------13----------b13--------------------------|
G|--12-12----12----12----12---12-12----12----12------------------------------|
D|---------------------------------------------------------------------------|
A|---------------------------------------------------------------------------|
E|---------------------------------------------------------------------------|


Chorus x2

Rhythm guitar:
Bridge figure 1

e|---------------------------------------------------------------------------|
B|---------------------------------------------------------------------------|
G|---------------------------------------------------------------------------|
D|--5------------------------------------------------------------------------|
A|--3-2-3--x3x3x3x3--3-1-5-x5x5x5x5------------------------------------------|
E|----0-1--x1x1x1x1--1-0-3-x3x3x3x3--repeat x2-------------------------------|

Lead guitar:
Bridge figure 1

e|---------------------------------------------------------------------------|
B|---------------------------------------------------------------------------|
G|-----------------------------------9-10-9--7--5---9-10-9--7--5--5-7--------|
D|---------------------------------------------------------------------------|
A|--7-8-7--5--3---7-8-7--5--3--3-5---7-8--7--5--3---7-8--7--5--3--3-5--------|
E|---------------------------------------------------------------------------|

Lead guitar:
Bridge, middle
-I do this every night.....

e|------------------------------------------------------------0--------------|
B|------------------------------------------------------------0--------------|
G|------------------------------------------------------------0--------------|
D|------------------------------------------------------------0--------------|
A|--33-33-33-33-----33-33-33-33-----33-33-33-33-----33-33-33--0--------------|
E|--------------1/3-------------1/3-------------1/3-----------0--------------|

Rhythm guitar:
Bridge figure 2

e|---------------------------------------------------------------------------|
B|---------------------------------------------------------------------------|
G|---------------------------------------------------------------------------|
D|--55-55-55-55-----55-55-55-55-----55-55-55-55-----55-55-55-55--------------|
A|--33-33-33-33-3/5-33-33-33-33-3/5-33-33-33-33-3/5-33-33-33-33-3/5----------|
E|--------------1/3-------------1/3-------------1/3-------------1/3----------|

Lead guitar:
Bridge figure 2

e|---------------------------------------------------------------------------|
B|---------------------------------------------------------------------------|
G|--99-99-99-99-10-12--99-99-99-99-7-5---------------------------------------|
D|---------------------------------------------------------------------------|
A|--77-77-77-77-8--10--77-77-77-77-5-3--repeat x2----------------------------|
E|---------------------------------------------------------------------------|


Chorus


The End


************************************

| /   slide up
| \   slide down
| h   hammer-on
| p   pull-off
| ~   vibrato
| +   harmonic
| x   Mute note
| b   Bend
| pb  Pre-bend
| br  Bend release
| pbr Pre-bend release
| brb Bend release bend

************************************
Tap to rate this tab
# A B C D E F G H I J K L M N O P Q R S T U V W X Y Z