Song name
# A B C D E F G H I J K L M N O P Q R S T U V W X Y Z

Dorm Patrol - Hooked For Life tab

-------------------------------------------------------------------------------
                             Hooked for Life - Dorm Patrol
-------------------------------------------------------------------------------
Tabbed by: sajv4H
E-mail: Danskfatol@live.com

Tuning: D-Standard, DGCFAd


Lead guitar:
Intro part 1

e|---------------------------------------------------------------------------|
B|---------------------------------------------------------------------------|
G|------9-----9---9-----9-----9---9-----9-----9----x3------8-----8-----------|
D|--9-9---9-9---9---9-9---9-9---9---9-9---9-9---9--x3--9-9---9-9-------------|
A|---------------------------------------------------------------------------|
E|---------------------------------------------------------------------------|

e|---------------------------------------------------------------------------|
B|---------------------------------------------------------------------------|
G|--9999-8888----------------------------------------------------------------|
D|--9999-9999----------------------------------------------------------------|
A|---------------------------------------------------------------------------|
E|---------------------------------------------------------------------------|

Rhythm guitar:
Intro part 1

e|---------------------------------------------------------------------------|
B|---------------------------------------------------------------------------|
G|-------------2---------------------4-----4444-2222-------------------------|
D|--2----------2----------2----------4-----4444-2222-------------------------|
A|--2----------0----------2----------2-----2222-0000-------------------------|
E|--0---------------------0--------------------------------------------------|

Lead guitar
Intro part 2

e|---------------------------------------------------------------------------|
B|---------------------------------------------------------------------------|
G|------9-----9-----13-----13-----11-9--x3------9-----9---9-9999-8888--------|
D|--9-9---9-9---9-9----9-9----9-9-------x3--9-9---9-9---9---9999-9999--------|
A|---------------------------------------------------------------------------|
E|---------------------------------------------------------------------------|

Rhythm guitar:

Intro part 2

e|---------------------------------------------------------------------------|
B|---------------------------------------------------------------------------|
G|-------------2222222222------------44444-4444-4444-------------------------|
D|--2222222222-2222222222-2222222222-44444-4444-4444-------------------------|
A|--2222222222-0000000000-2222222222-22222-2222-2222-------------------------|
E|--0000000000------------0000000000-----------------------------------------|

Lead guitar:
Verse 1

e|---------------------------------------------------------------------------|
B|---------------------------------------------------------------------------|
G|--9-hold-------------------------------------------------------------------|
D|---------------------------------------------------------------------------|
A|--7-hold-------------------------------------------------------------------|
E|---------------------------------------------------------------------------|

Rhythm guitar:
Verse 1

-The cops are after me....

e|---------------------------------------------------------------------------|
B|---------------------------------------------------------------------------|
G|-------------2---------------------4--x2-----------------------------------|
D|--2----------2----------2----------4--x2-----------------------------------|
A|--2----------0----------2----------2--x2-----------------------------------|
E|--0---------------------0--------------------------------------------------|

Bridge

-And if you wanna take....

e|---------------------------------------------------------------------------|
B|---------------------------------------------------------------------------|
G|---------------------------------------------------------------------------|
D|//66-666--44-444--22-222----------66-666--44-444--22-222--4----------------|
A|//44-444--22-222--00-000--22-222--44-444--22-222--00-000--2----------------|
E|--------------------------00-000-------------------------------------------|

Rhythm guitar:
Chorus

-Im Hooked, im Hooked for life....

e|---------------------------------------------------------------------------|
B|---------------------------------------------------------------------------|
G|---------444444-666666-222222-x3--------444444-666666----------------------|
D|--222222-444444-666666-222222-x3-222222-444444-666666-2222-2222-4444-4444--|
A|--222222-222222-444444-000000-x3-222222-222222-444444-0000-0000-2222-2222--|
E|--000000-------------------------000000------------------------------------|

Lead guitar:
Chorus
On the 4th loop of rhythm guitar

e|---------------------------------------------------------------------------|
B|---------------------------------------------------------------------------|
G|----9--13-11-9-9---11-11-11-11--11-11-11-11--13-13-13-13--13-13-13-13------|
D|---------------------------------------------------------------------------|
A|----7--11-9--7-7---9--9--9--9---9--9--9--9---11-11-11-11--11-11-11-11------|
E|---------------------------------------------------------------------------|


Intro


Rhythm guitar Verse 2, same as 1

-

Lead guitar verse 2

e|---------------------------------------------------------------------------|
B|---------------------------------------------------------------------------|
G|--9-9-9-9-9-9--14-14-14-14-14-14--9-9-9-9-9-9--4-4-4-4-4-4-----------------|
D|---------------------------------------------------------------------------|
A|--7-7-7-7-7-7--12-12-12-12-12-12--7-7-7-7-7-7--2-2-2-2-2-2-----------------|
E|---------------------------------------------------------------------------|

e|---------------------------------------------------------------------------|
B|---------------------------------------------------------------------------|
G|--9-9-9-9-9-9--14-14-14-14-14-14--9-9-9-9-9-9--16-16-16-16-16-16-----------|
D|---------------------------------------------------------------------------|
A|--7-7-7-7-7-7--12-12-12-12-12-12--7-7-7-7-7-7--14-14-14-14-14-14-----------|
E|---------------------------------------------------------------------------|


Bridge


Chorus

-

e|---------------------------------------------------------------------------|
B|------------------------------------------------b12------------------------|
G|------------------------------------------------b15------------------------|
D|------------------22-----22--------x2--*-----------------------------------|
A|--22-***-22-------00-***-00-4-2-0--x2--*-----------------------------------|
E|--00-***-00-0-2-4----***---------------------------------------------------|

-Kick, push, kick, push...

e|---------------------------------------------------------------------------|
B|---------------------------------------------------------------------------|
G|---------------------------------------------------------------------------|
D|------------------22-----22--------x6--------------------------------------|
A|--22-***-22-------00-***-00-4-2-0--x6--------------------------------------|
E|--00-***-00-0-2-4----***-----------x6--------------------------------------|

-And if you wanna take it slow...

e|---------------------------------------------------------------------------|
B|---------------------------------------------------------------------------|
G|---------------------------------------------------------------------------|
D|---------------------------------------------------------------------------|
A|--x2-x2----x2-x2----x2-x2----x2-x2------x4---------------------------------|
E|--x0-x0----x0-x0----x0-x0----x0-x0--b5--x4---------------------------------|


Bridge 


Chorus


Bridge


The End



************************************
| *   chunk
| /   slide up
| \   slide down
| h   hammer-on
| p   pull-off
| ~   vibrato
| +   harmonic
| x   Mute note
| b   Bend
| pb  Pre-bend
| br  Bend release
| pbr Pre-bend release
| brb Bend release bend

************************************
Tap to rate this tab
 
# A B C D E F G H I J K L M N O P Q R S T U V W X Y Z