Song name
# A B C D E F G H I J K L M N O P Q R S T U V W X Y Z

Doro Pesch - Something Wicked This Way Comes tab

Doro - Something Wicked This Way Comes

Intro
e|-----------------------------------------------------------------|
b|-----------------------------------------------------------------|
g|-----------------------------------------------------------------|
d|---------------------------------------7---9--8--7--6--9--8---7--|
a|-----7-----------7-----------7---------7---9--8--7--6--9--8---7--|
E|--7-----7--6--5-----5--4--7-----7--6---5---7--6--5--4--7--6---5--|

Verse/Chorus
e|--------------|-----|
b|--------------|-----|
g|--------------|-----|
d|--9--8--7--6--|--7--|
a|--9--8--7--6--|--7--|
E|--7--6--5--4--|--5--|

Chorus
e|--12--11--10--9--|
b|-----------------|
g|-----------------|
d|-----------------|
a|-----------------|
E|-----------------|

“Somebody help me…”
e|--------|--------|--------------------------------------------|
b|--------|--------|--------------------------------------------|
g|--------|--------|--2--4--4--6--2--4--6--2--4--4--6--2--4--6--|
d|--7--4--|--------|--2--4--4--6--2--4--6--2--4--4--6--2--4--6--|
a|--7--4--|--------|--0--2--2--4--0--2--4--0--2--2--4--0--2--4--|
E|--5--2--|--0--2--|--------------------------------------------|

Solo/Outro
e|------------|--------------|
b|------------|--------------|
g|--6--9--11--|--------------|
d|--6--9--11--|--9--8--7--6--|
a|--4--7---9--|--9--8--7--6--|
E|------------|--7--6--5--4--|
Tap to rate this tab
# A B C D E F G H I J K L M N O P Q R S T U V W X Y Z