Song name
# A B C D E F G H I J K L M N O P Q R S T U V W X Y Z

Doro Pesch - Legends Never Die tab

-------------------------------------------------------------------------------
	           Legends Never Die - As Blood Runs Black                  
-------------------------------------------------------------------------------


Tabbed by:satansdisciple
Email:craziest_player@hotmail.com

With 50+ requests for this song i had to do it. Its a fucking good song, i know.
Here it is to the best of my knowledge.

Tuning: Drop C


d|---------------------------------------------------------------------------|
a|---------------------------------------------------------------------------|
f|---------------------------------------------------------------------------|
c|-0-----7----------------------0-------5-7-5--------------------------------|
g|-0-----------8---5---8---7\5--0-------------8-7-5--------------------------|
c|-0-0-0---0-0---0---0---0------0-0-0-0--------------------------------------|
                         
d|---------------------------------------------------------------------------|
a|---------------------------------------------------------------------------|
f|--------------------------------------5-7-5--------------------------------|
c|-0-----7----------------------0-------------8-7-5--------------------------|
g|-0-----------8---5---8---7\5--0--------------------------------------------|
c|-0-0-0---0-0---0---0---0------0-0-0-0--------------------------------------|

d|---------------------------------------------------------------------------|
a|---------------------------------------------------------------------------|
f|---------------------------------------------------------------------------|
c|-8-----7----------------------8-------5-7-5---5----------------------------|
g|-8-----------8---5---8---7\5--8-------------8---8--------------------------|
c|-8-8-8---8-8---8---8---8------8-8-8-8--------------------------------------|


d|---------------------------------------------------------------------------|
a|---------------------------------------------------------------------------|
f|---------------------------------------------------------------------------|
c|-5-----7----------------7-----7-8-7----------------------------------------|
g|-5-----------8---7---8--7-----------7-8-7-5-7-5----------------------------|   
c|-5-5-5---5-5---8---8----7-7-7----------------------------------------------|   
                                | not quite sure |                          
                                | bout this part |

Play these four bars 2x


 

    0:24 seconds
d|---------------------------------------------------------------------------|
a|---------------------------------------------------------------------------|
f|---------------------------------------------------------------------------|
c|-0-----7----------------0-0-0-0--0-0-0-0-----------------------------------|
g|-0-----------8---5---8--0-0-0-0--0-0-0-0-----------------------------------|
c|-0-0-0---0-0---0---0----0-0-0-0--0-0-0-0-----------------------------------|

d|---------------------------------------------------------------------------|
a|---------------------------------------------------------------------------|
f|--------------------------------------------ph7----------------------------|
c|-0-----7----------------5-5-5--7-7-7--8-8-8--------------------------------|
g|-0-----------8---5---8--5-5-5--7-7-7--8-8-8--------------------------------|
c|-0-0-0---0-0---0---0----5-5-5--7-7-7--8-8-8--------------------------------|

d|---------------------------------------------------------------------------|
a|---------------------------------------------------------------------------|
f|---------------------------------------------------------------------------|
c|-8-----7----------------------8-------5-7-5---5----------------------------|
g|-8-----------8---5---8---7\5--8-------------8---8--------------------------|
c|-8-8-8---8-8---8---8---8------8-8-8-8--------------------------------------|

d|---------------------------------------------------------------------------|
a|---------------------------------------------------------------------------|
f|---------------------------------------------------------------------------|
c|-5-----7----------------7-----7-8-7----------------------------------------|
g|-5-----------8---7---8--7-----------7-8-7-5-7-5----------------------------|
c|-5-5-5---5-5---8---8----7-7-7----------------------------------------------|
                                |   Once again   |
                                | not quite sure | 
                                | bout this part |



| ph pinch harmonic
| /  slide up
| \  slide down
| h  hammer-on
| p  pull-off
| ~  vibrato
| +  harmonic
| x  Mute note

Thats all i've got for you now. I'll try and do the rest later. 
Feel free to comment or tab the rest. haha

===============================================================================
Tap to rate this tab
# A B C D E F G H I J K L M N O P Q R S T U V W X Y Z