Song name
# A B C D E F G H I J K L M N O P Q R S T U V W X Y Z

Dos Minutos - Amor Suicida tab

                            DOS MINUTOS TAB
                              AMOR SUICIDA


INTRO...

E---------------------------------------------33-333-3/5-5-9--5-7-9-------|I
B-----5-9--5-7-9--7-5-5-555555-5-9--5-77-9--7-55-555-5/7-7-11-7-9-11------|I
G-----7-11-7-9-11-9-7-7-777777-7-11-7-99-11-9-55-555-5/7-7-11-7-9-11------|
D-----7-11-7-9-11-9-7-7-777777-7-11-7-99-11-9-----------------------------|I
A-------------------------------------------------------------------------|I
E-------------------------------------------------------------------------|I

E---7-5---------------------------33-3333/5-55555555----------------------|I
B---9-7-55-7-9--7-5-5-9--5-7-7-9--55-5555/7-77777777----------------------|I
G---9-7-77-9-11-9-7-7-11-7-9-9-11-55-5555/7-77777777-5--------------------|I
D-------77-9-11-9-7-7-11-7-9-9-11--------------------7--------------------|I
A----------------------------------------------------7--------------------|I
E-------------------------------------------------------------------------|I
Tap to rate this tab
# A B C D E F G H I J K L M N O P Q R S T U V W X Y Z