Song name
# A B C D E F G H I J K L M N O P Q R S T U V W X Y Z

Dos Minutos - Pandora Box tab

la segunda viola hace estos acordes

iNTRO: B-E-C#-F#-E

y la primera hace esto


e)------------------/    /----------------------------------|
B)--------------7---/    /---9-7-9-7-9----11-11-11-11-11-11-|
G)--------999-8-----/(x3)/----------------------------------|
D)--9---------------/    /----------------------------------|
A)------------------/    /----------------------------------|
E)------------------/    /----------------------------------|


e)------------------------    /---------------------------------|
B)-12-13-12--------------7    /---------------------------------|
G)---------------9-9-9-8- (x3)/--6-6-6-6-6-----4-4-4-4-4-4-4----|
D)------------------------    /---------------------------------|
A)------------------------    /---------------------------------|
E)------------------------    /---------------------------------|


B             E                   C#
Mil veces te caes, pero estas de pie.
  F#            E
Y fénix vuela por el cielo.
B               E            C#
Hoy todo puede ser, una confusión.
F#             E
Miles de problemas nena
B                 E
Yo sé, que vos sabés
          C#    F#             E
Tengo la mejor, sabés donde encontrarme nena!

B E             C#           B     A       F#
  Armás y desarmás tu propia caja, Pandora Box
  Armás y armás y desarmás tu propia caja, Pandora Box
  Armás y desarmás tu propia caja, Pandora Box

B                 E         C#
Quizás pueda ser mejor, estallar!!
F#      E
Sacá tu mierda nena hoy...
B                   E            C#
Pensás, una y otra vez como escapar.
F#        E
Cambiaste de piel nena.
B               E
Yo se, que vos sabés
             C#      F#       E
Difícil pilotear, tu diamante espera nena.

B E             C#           B     A       F#
  Armás y desarmás tu propia caja, Pandora Box
  Armás y armás y desarmás tu propia caja, Pandora Box
  Armás y desarmás tu propia caja, Pandora Box

iNTRO

B E             C#           B     A       F#
  Armás y desarmás tu propia caja, Pandora Box
  Armás y armás y desarmás tu propia caja, Pandora Box
  Armás y desarmás tu propia caja, Pandora Box

ESssoooooooooooooooooo
a pedido de ivan y dedicada para el

segui asi maestrooooooooooooooooooooooo

VAmos dosmin!!
2'
el solo no lo se:(
Tap to rate this tab
 
# A B C D E F G H I J K L M N O P Q R S T U V W X Y Z