Song name
# A B C D E F G H I J K L M N O P Q R S T U V W X Y Z

Dos Minutos - Laburantes tab

------------------------------------------------------|
------------------------------------------------------|
------------------------------------------------------|
------------------------------------5----5----5-------|
----7--7---7------8----8----8-------------------------|
-----5---5---5------5----5----5-------5----5----5-----|

------------------------------------------------------------------------------|
------------------------------------------------------------------------------|
------------------------------------------------------------------------------|
------------------------------------------------------5-----5-----5-----------|
-8---8---8------7----7----7-------8-----8-----8-------------------------------|
---5---5---5------5----5----5--------5-----5-----5-------5-----5-----5--------|

-----------------------------------------------------|
-----------------------------------------------------|
-----------------------------------------------------|
--7------7-------7--------------7--------------------|
--------------------------------7--------------------|
-----5------5--------5----------5--------------------|

ese es solo el intro de la cancion..el resto sakenlo ustedes. para komentarios o dudas 
a  gilpunkboy182@yahoo.com
Tap to rate this tab
 
# A B C D E F G H I J K L M N O P Q R S T U V W X Y Z