Song name
# A B C D E F G H I J K L M N O P Q R S T U V W X Y Z

Dos Minutos - Lado Oscuro tab

Help us improve GuitareTab! Take a short survey!
ke onda esta rola de dos minutos es de las  mas xidas
por eso aki les van estas tabs pa ke la saken

intro

1--------------------------------------------------|
2--------------------------------------------------|
3--------------------------------------------------|
4-------------7-7--7-7--7--------------9-9--9-9--9-|
5----5-4-5-4--7-7--7-7--7-----5-4-5-4--9-9--9-7--9-|
6-------------5-5--5-5--5--------------7-7--7-7--7-|


1-------------------------------------------------|
2-------------------------------------------------|
3-------------------------------------9-9--9-9--9-|
4-------------7-7--7-7--7-------------9-9--9-9--9-|
5----5-4-5-4--7-7--7-7--7----5-4-5-4--7-7--7-7--7-|
6-------------5-5--5-5--5-------------------------|

1-------------------------------------------------------------|
2-------------------------------------------------------------|
3---11x5--9x5---7------------------------11-----9------7------|
4---11x5--9x5---7----4-4-----4---4-------11-----9------7------|
5---9x5---7x5---5--------5-5---5---5-----9------7------5------|
6-------------------------------------------------------------|


1--------------------------------------------|
2--------------------------------------------|
3--11--13--14--16--14--13--14--13--11--9--11-|
4---x---x---x---x---x---x---x--x----x--x---x-|
5---9--11--12--14--12--11--12--11---9--7---9-|
6--------------------------------------------|


verso


1--------------|
2--------------|
3----------11--|
4-----7----11--|
5-----7----9---|
6-----5--------|

koro

1-----------------|
2-----------------|
3----11----7---7--|
4----11----7---7--|
5----9-----9---5--|
6-----------------|

y despues solo se repite el intro solo chekate bien los tiempos pero la neta ta bien facil
para caerle
kamara ......efecto nikotina......Flavor tkm mm
Related for Lado Oscuro tab