Guitaretab - guitar tabs
Song name
# A B C D E F G H I J K L M N O P Q R S T U V W X Y Z

Dos Minutos - Como Caramelo De Limon tab

ke onda  aki les va esta rola de dos minutos 2"
caramelo de limon espero no tener errores, nadamas
es chekar los tiempos y ya ...... te kiero muxo meme


intro

1------------------------------------------------------|
2------------------------------------------------------|
3----5--5-5-5------------------------------------------| X3
4----5--5-5-5---7--7-7-7--7---3--3-3-3-3---5--5-5-5-5--|
5----3--3-3-3---7--7-7-7--7---3--3-3-3-3---5--5-5-5-5--|
6---------------5--5-5-5--5---1--1-1-1-1---3--3-3-3-3--|

repitelo 3 veces con palm mute
solo trara de seguir el ritmo del rasgueo
y cheka el tiempo de los compases debes
terminar el ultimo compas en do.


outro.

1-------------------------------------------------------------|
2-------------------------------------------------------------|x4
3---------------------5-5-5-5-5-5-5---------------------------|
4--3-3-3-3---5-5-5-5--5-5-5-5-5-5-5---------------------------|
5--3-3-3-3---5-5-5-5--3-3-3-3-3-3-3---------------------------|
6--1-1-1-1---3-3-3-3------------------------------------------|

. deja extendida la guitarra en el ultimo compas

[ Tab from: http://www.guitaretab.com/d/dos-minutos/82997.html ]
1---------------------------------------------------------|
2---------------------------------------------------------|
3----5--5-5-5-----7-7-7-7-------5----4-5-5-5-5--4-5-5-5-5-|
4----x--x-x-x-----x-x-x-x-------5-------------------------|
5----3--3-3-3-----5-5-5-7-------3-------------------------|
6---------------------------------------------------------|

esto es como un adorno ke hacen sobre el intro solo cheka el compas
en el kual se hace para caerle alos tiempos.


1------------------------------------------------------|
2------------------------------------------------------|x2
3----5--5-5-5------------------------------------------|
4----5--5-5-5---7--7-7-7--7---3--3-3-3-3---5--5-5-5-5--|
5----3--3-3-3---7--7-7-7--7---3--3-3-3-3---5--5-5-5-5--|
6---------------5--5-5-5--5---1--1-1-1-1---3--3-3-3-3--|

este es el verso debes de entrar
en putisa despues de terminar el outro


1----------------------------------------------------------------|
2-------------5-5-5-5--------------------------------------------|
3--3-3-3-3--- 5-5-5-5---5-5-5-5----7-7-7-7-----------------------|coro
4--3-3-3-3----3-3-3-3---5-5-5-5----7-7-7-7-----------------------|
5--1-1-1-1--------------3-3-3-3----5-5-5-5-----------------------|
6--1-1-1-1--------------3-3-3-3----5-5-5-5-----------------------|

despues de terminar el coro  se repite todo desde el outro  hasta el coro

1---------------|
2---------------|
3--------5------| esto es lo ultimo
4-----5--5------| antes de terminar......
5-----5--3------|
6-----3---------|


esta tab se la kiero dedikar a mi novia "meme" ke la kiero un xingoo
y ke la am0o0o0o0o jeje espero ke la vea algun dia te amo mi niņa
kamara.
                         EFEKTO NIKOTINA.........
Related for Como Caramelo De Limon tab
×
Como Caramelo De Limon