Song name
# A B C D E F G H I J K L M N O P Q R S T U V W X Y Z

Dos Minutos - Pinas Van Pinan Vienen tab

INTRO: C5-F5-G5-C5 (dos veces)

1ER SOLO: (sobre acordes del intro) (dos veces)
e||---------------------------------------|
B||---------------------------------------|
G||--5-4-2-4--2-4-2-----------------------|
D||-----------------5---5-3-2-3--2-3-0----|
A||------------------------------------3--|
E||---------------------------------------|

VERSO: (sobre acordes del intro)
Piñas van, piñas vienen
los muchachos se entretienen!
Piñas van, piñas vienen
los muchachos se entretienen!

ESTRIBILLO: (sobre acordes del intro)
Todo puede ser por una mujer!
todo puede ser, por algún billete!
Victor Galíndez, Carlos Monsón,
Nicolino Loche, Horacio Acavalo! EH!

2DO SOLO: (sobre acordes del intro) (dos veces)
e||---------------------------------------------------|
B||--13-12-10-12--10-12-10----------------------------|
G||------------------------12---12-10-9-10---10-9-7-5-|
D||---------------------------------------------------|
A||---------------------------------------------------|
E||---------------------------------------------------|

VERSO: (sobre acordes del intro)
Piñas van, piñas vienen
los muchachos se entretienen!
Piñas van, piñas vienen
los muchachos se entretienen!

ESTRIBILLO: (sobre acordes del intro)
Todo puede ser por una mujer!
todo puede ser, por algún billete!
Victor Galíndez, Carlos Monsón,
Ringo Bonavena, Uby Sacco! EH!

3ER SOLO: (sobre acordes del intro)(dos veces)
e||-----------------------------------------|
B||-----------------------------------------|
G||--5-4-2-4--5-4-2-----5-4-2-4-------------|
D||-----------------5------------2-3-2-0----|
A||--------------------------------------3--|
E||-----------------------------------------|

VERSO: (sobre acordes del intro)
Piñas van, piñas vienen
los muchachos se entretienen!
Piñas van, piñas vienen
los muchachos se entretienen!

FINAL: (sobre acordes del intro)
Piñas van...
Piñas vienen...
Piñas van...
Piñas vienen...
Tap to rate this tab
 
# A B C D E F G H I J K L M N O P Q R S T U V W X Y Z