Song name
# A B C D E F G H I J K L M N O P Q R S T U V W X Y Z

Dot Hacker - Puncture tab

Dot Hacker - Puncture

These guys rock!A shame there aren't a lot of tabs,so I made this.
It's my favourite song from them.

Intro:

You can play the guitar silently without distortion:

   Am   Gm
e|-5----3--|
B|-5----3--|
G|-5----3--|x1
D|-7----5--|
A|-7----5--|
E|-5----3--|

Verse:

  Am   Gm
|-5----3--|
|-5----3--|
|-5----3--|x4
|-7----5--|
|-7----5--|
|-5----3--|

Pre-chorus:

  Gm    A    F#
|-3-----5----2--|
|-3-----5----2--|
|-3-----6----3--|
|-5-----7----4--|
|-5-----7----4--|
|-3-----5----2--|

  Gm   A#   F
|-3----6----1--|
|-3----6----1--|
|-3----7----2--|
|-5----8----3--|
|-5----8----3--|
|-3----6----1--|

Back to verse:

  Gm   F
|-3----1--|
|-3----1--|
|-3----2--|x4
|-5----3--|
|-5----3--|
|-3----1--|

Pre-chorus:

  Gm    A    F#
|-3-----5----2--|
|-3-----5----2--|
|-3-----6----3--|
|-5-----7----4--|
|-5-----7----4--|
|-3-----5----2--|

 Gm   A#   F
|-3----6----1--|
|-3----6----1--|
|-3----7----2--|
|-5----8----3--|
|-5----8----3--|
|-3----6----1--|

Verse:

Gtr.1

  Gm   F
|-3----1--|
|-3----1--|
|-3----2--|x4
|-5----3--|
|-5----3--|
|-3----1--|


Gtr.2:

Riff 1
Riff 2
Riff 1
Riff 2

Riff 1

|-13-13-13/11--11-11-11/10--10-10-10/8--8-8-8/6--6-6-5h6p5--|
|-----------------------------------------------------------|
|-----------------------------------------------------------|
|-----------------------------------------------------------|
|-----------------------------------------------------------|
|-----------------------------------------------------------|

Riff 2

|-13-13-13/11--11-11-11/10--10-10-10/8--8-8-8/6--6-6-5-----5-6-|
|------------------------------------------------------6-6-----|
|--------------------------------------------------------------|
|--------------------------------------------------------------|
|--------------------------------------------------------------|
|--------------------------------------------------------------|

The bridge thing:

  Gm     Gm
|-3------3--|
|-3------3--|
|-3------3--|x3
|-5------5--|
|-5------5--|
|-3------3--|

The fourth time play:

  F
|-1--|
|-1--|
|-2--|
|-3--|
|-3--|
|-1--|

verse:

  Gm   F
|-3----1--|
|-3----1--|
|-3----2--|x1
|-5----3--|
|-5----3--|
|-3----1--|

Then play Gm and go into the pre-chorus:

  Gm    A    F#
|-3-----5----2--|
|-3-----5----2--|
|-3-----6----3--|
|-5-----7----4--|
|-5-----7----4--|
|-3-----5----2--|

  Gm   A#   F
|-3----6----1--|
|-3----6----1--|
|-3----7----2--|
|-5----8----3--|
|-5----8----3--|
|-3----6----1--|

Then to this fill:

|-----------------------|
|-----------------------|
|-----------------------|
|----------8-10-8-------|
|-6h8p6-10--------10-8--|
|-----------------------|


Chorus:

    Gm   Am   A#   G#   Gm  Cm  A# Am Am  Gm
|---3----5----6----4----3---8---6--5--5---3--|
|---3----5----6----4----3---8---6--5--5---3--|
|---3----5----7----5----3---8---7--5--5---3--|x2
|---5----7----8----6----5---10--8--7--7---5--|
|---5----7----8----6----5---10--8--7--7---5--|
|-3-3--5-5--6-6--4-4--3-3---8---6--5--5---3--|

Then,for some time,there isn't any guitar.

Then around 5:40

|-5-5-5-5-5-5-6--6--6--6--6--6-5-5-5--|
|-5-5-5-5-5-5-6--6--6--6--6--6-5-5-5--|
|-6-6-6-6-6-6-7--7--7--7--7--7-6-6-6--|
|-7-7-7-7-7-7-8--8--8--8--8--8-7-7-7--|
|-7-7-7-7-7-7-8--8--8--8--8--8-7-7-7--|
|-5-5-5-5-5-5-6--6--6--6--6--6-5-5-5--|

|--------------------------------------|
|--------------------------------------|
|-------------------7------------------|x2
|-10-10-10-10-10-10-10b---7b-7b-7b-7b--|
|--------------------------------------|
|--------------------------------------|

End:

|-----------------------|
|-13b-15-13b-13-13b-11--|
|-----------------------|
|-----------------------|
|-----------------------|
|-----------------------|

That's it.Hope it helps.
Tap to rate this tab
# A B C D E F G H I J K L M N O P Q R S T U V W X Y Z