Song name
# A B C D E F G H I J K L M N O P Q R S T U V W X Y Z

Dot Hacker - Whatever You Want tab

Dot Hacker - Whatever You Want 

It's a pretty cool new song from Dot Hacker.


This song doesn't really have an intro,instead it immediately cuts to the verse.

Verse:

Gtr.1

e|-5-555---1-1--1-1-1----5-5--6-6--3-3--3-3----|
B|-6-666---3-1--1-1-1----5-5--6-6--3-3--5-5----|
G|-7-777---3-2--2-2-2----6-6--7-7--4-4--5-5----|
D|-7-777---3-3--3-3-3----7-7--8-8--5-5--5-5----|
A|-5-555---1-3--3-3-3----7-7--8-8--5-5--3-3----|
E|-----------1--1-1-1----5-5--6-6--3-3---------|


|-5-555---1-1--1-1-1----5-5--6-6--3-3--3-3----|
|-6-666---3-1--1-1-1----5-5--6-6--3-3--5-5----|
|-7-777---3-2--2-2-2----6-6--7-7--4-4--5-5----|
|-7-777---3-3--3-3-3----7-7--8-8--5-5--5-5----|
|-5-555---1-3--3-3-3----7-7--8-8--5-5--3-3----|
|-----------1--1-1-1----5-5--6-6--3-3---------|


|-5-555---1-1--1-1-1----5-5--6-6--3-3--3-3----|
|-6-666---3-1--1-1-1----5-5--6-6--3-3--5-5----|
|-7-777---3-2--2-2-2----6-6--7-7--4-4--5-5----|
|-7-777---3-3--3-3-3----7-7--8-8--5-5--5-5----|
|-5-555---1-3--3-3-3----7-7--8-8--5-5--3-3----|
|-----------1--1-1-1----5-5--6-6--3-3---------|

Gtr.2

|---------------------------5------6---6--3-3--3-------|
|---------------------------5------6---6--3-3--5-6p5---|
|---------------------------6------7---7--4-4--5-----5-|
|-------------------------7---7--8---8----5-5--5-------|
|-----------------------------------------5-5--3-------|
|-----------------------5-----------------3-3----------|

|---5--1--1----1----------5------6---6--3-3--3-------|
|---6--3--1------1--------5------6---6--3-3--5-6p5---|
|---7--3--2--2-----2------6------7---7--4-4--5-----5-|
|---7--3--3-------------7---7--8---8----5-5--5-------|
|-5----1--3-------------------------------5-5--3-----|
|---------1-----------5-----------------3-3----------|

|---5--1--1----1------------5------6---6--3-3--3-------|
|---6--3--1------1----------5------6---6--3-3--5-6p5---|
|---7--3--2--2-----2--------6------7---7--4-4--5-----5-|
|---7--3--3----------3----7---7--8---8----5-5--5-------|
|-5----1--3-------------------------------5-5--3-------|
|---------1-------------5-----------------3-3----------|

Chorus:

Gtr.1

|--1-1--5-5--6-6--3-3-----------5~-|
|--1-1--5-5--6-6--3-3----5-6-8--6~-|
|--2-2--6-6--7-7--4-4-----------5~-|
|--3-3--7-7--8-8--5-5--------------|
|--3-3--7-7--8-8--5-5--------------|
|--1-1--5-5--6-6--3-3--------------|

Gtr.2


|--1-1--5-5--6-6--3-3-3------------|
|--1-1--5-5--6-6--3-3-3------------|
|--2-2--6-6--7-7--4-4-4------------|
|--3-3--7-7--8-8--5-5-5------------|
|--3-3--7-7--8-8--5-5-5------------|
|--1-1--5-5--6-6--3-3-3------------|

Verse:

Gtr.1

|-5-555---1-1--1-1-1----5-5--6-6--3-3--3-3----|
|-6-666---3-1--1-1-1----5-5--6-6--3-3--5-5----|
|-7-777---3-2--2-2-2----6-6--7-7--4-4--5-5----|
|-7-777---3-3--3-3-3----7-7--8-8--5-5--5-5----|
|-5-555---1-3--3-3-3----7-7--8-8--5-5--3-3----|
|-----------1--1-1-1----5-5--6-6--3-3---------|

|-5-555---1-1--1-1-1----5-5--6-6--3-3--3-3----|
|-6-666---3-1--1-1-1----5-5--6-6--3-3--5-5----|
|-7-777---3-2--2-2-2----6-6--7-7--4-4--5-5----|
|-7-777---3-3--3-3-3----7-7--8-8--5-5--5-5----|
|-5-555---1-3--3-3-3----7-7--8-8--5-5--3-3----|
|-----------1--1-1-1----5-5--6-6--3-3---------|

Gtr.2

|-5~---1-1~----5~-6~-3~-3~--|
|-6~---3-1~----5~-6~-3~-5~--|
|-7~---3-2~----6~-7~-4~-5~--|
|-7~---3-3~----7~-8~-5~-5~--|
|-5~---1-3~----7~-8~-5~-3~--|
|--------1~----5~-6~-3~-----|

|-17-18-17~-------------------15-----------------|
|-------------13---17--15--18----18-17--15-13-17-|
|------------------------------------------------|
|------------------------------------------------|
|------------------------------------------------|
|------------------------------------------------|

Chorus:

Gtr.1

|--1-1--5-5--6-6--3-3--8-6-5------------5~-|
|--1-1--5-5--6-6--3-3--------5---5-6-8--6~-|
|--2-2--6-6--7-7--4-4-------------------5~-|
|--3-3--7-7--8-8--5-5----------------------|
|--3-3--7-7--8-8--5-5----------------------|
|--1-1--5-5--6-6--3-3----------------------|

Gtr.2


|--1-1--5-5--6-6--3-3-3------------|
|--1-1--5-5--6-6--3-3-3------------|
|--2-2--6-6--7-7--4-4-4------------|
|--3-3--7-7--8-8--5-5-5------------|
|--3-3--7-7--8-8--5-5-5------------|
|--1-1--5-5--6-6--3-3-3------------|

Bridge:

Both guitars

|--------------------------------------------|
|-3-----3-----3-----3-----3/666--------------|
|-3-2---3-2---3-2---3-2---3/666-2------------|
|-3-3---3-3---3-3---3-3---3/666-3------------|
|-1-3---1-3---1-3---1-3---1/444-3--------3---|
|---1-----1-----1-----1---------1--1-1/5---5-|

Then:

Gtr.1 

|-5-5-5--4-4-4--5-5-5--4-4-3----------5-5-5--4-4-4--5-5-5--0-0-0-|
|-5-5-5--4-4-4--5-5-5--4-4-3----------5-5-5--4-4-4--5-5-5--0-0-0-|
|-5-5-5--5-5-5--5-5-5--5-5-4----------5-5-5--5-5-5--5-5-5--1-1-1-|
|-7-7-7--6-6-6--7-7-7--6-6-5----------7-7-7--6-6-6--7-7-7--2-2-2-|
|-7-7-7--6-6-6--7-7-7--6-6-5--5-7-8-7-7-7-7--6-6-6--7-7-7--2-2-2-|
|-5-5-5--4-4-4--5-5-5--4-4-3----------5-5-5--4-4-4--5-5-5--0-0-0-|

Gtr.2

|---------------------------------------------|
|------5-------------4-----------5--------4-3-|
|--5-----5-------5-----5-----5-----5------5-4-|
|----7-----7-------6-----6-----7-----7----6-5-|
|------------7-------------------------7--6-5-|
|-5------------4-----------5--------------4-3-|

|-----------------5---5----5----0~-|
|-------5-----------5---5--5----0~-|
|---5-----5-----5----------5----1~-|
|-----7-----7---6----------7----2~-|
|-------------7-6----------7----2~-|
|-5-------------4----------5----0~-|

Solo:

Gtr.1

|-55555555-44444444-33333333-4-|
|-55555555-44444444-33333333-6-|
|-55555555-55555555-44444444-6-|
|-77777777-66666666-55555555-6-|
|-77777777-66666666-55555555-4-|
|-55555555-44444444-33333333---|

Gtr.2

|--------------------------------------------------|
|-121312131213121312131213121312131213/18-18-18-18-|
|--------------------------------------------------|
|--------------------------------------------------|
|--------------------------------------------------|
|--------------------------------------------------|

|-------------------------------------|
|-------------------------------------|
|-12b-12b-12b-12b-12b-12b-12b-15b-17b-|
|-------------------------------------|
|-------------------------------------|
|-------------------------------------|

|--------------------------13--------------------|
|------------------------------------15-------17-|
|-----------------15b----------------------------|
|-12b~--15b-12-15-------12----15b-12----12/14----|
|------------------------------------------------|
|------------------------------------------------|

Back to verse:

Both guitars:

|-5---1-1----5--6--3--3-|
|-6---3-1----5--6--3--5-|
|-7---3-2----6--7--4--5-|
|-7---3-3----7--8--5--5-|
|-5---1-3----7--8--5--3-|
|-------1----5--6--3----|

|-5---1-1----5--6--3--3---|
|-6---3-1----5--6--3--5---|
|-7---3-2----6--7--4--5---|
|-7---3-3----7--8--5--5---|
|-5---1-3----7--8--5--3---|
|-------1----5--6--3------|

Chorus again:

Gtr.1

|--1-1--5-5--6-6--3-3---|
|--1-1--5-5--6-6--3-3---|
|--2-2--6-6--7-7--4-4---|
|--3-3--7-7--8-8--5-5---|
|--3-3--7-7--8-8--5-5---|
|--1-1--5-5--6-6--3-3---|

Gtr.2


|--1-1--5-5--6-6--3-3-3---|
|--1-1--5-5--6-6--3-3-3---|
|--2-2--6-6--7-7--4-4-4---|
|--3-3--7-7--8-8--5-5-5---|
|--3-3--7-7--8-8--5-5-5---|
|--1-1--5-5--6-6--3-3-3---|

Bridge again:

Gtr.1

|-----------------------------------------------------------|
|-3-----3-----3-----3-----3/666----666----666----666----666-|
|-3-2---3-2---3-2---3-2---3/666-2--666-2--666-2--666-2--666-|
|-3-3---3-3---3-3---3-3---3/666-3--666-3--666-3--666-3--666-|
|-1-3---1-3---1-3---1-3---1/444-3--444-3--444-3--444-3--444-|
|---1-----1-----1-----1---------1------1------1------1------|

Gtr.2

|-------------------------------------------------------------------------|
|-------------6-----------------6-----------------6-----------------6-----|
|-7br-5---5-----5---7br-5---5-----5---7br-5---5-----5---7br-5---5-----5---|
|-------7---7-----7-------7---7-----7-------7---7-----7-------7---7-----7-|
|-------------------------------------------------------------------------|
|-------------------------------------------------------------------------|

|---------------------------------------|
|-6-5----------------6-5----------------|
|-----7-5----------------7-5------------|
|---------8-7-8-7-5b---------8-7-8-7-5b-|
|---------------------------------------|
|---------------------------------------|

|-----------5---5---------------------------13----|
|-6-5-6-8-------------6-5-------------------------|
|---------5---5---5/0-----7-5------------10----13-|
|-----------------------------8-7-8-7-5b----------|
|-------------------------------------------------|
|-------------------------------------------------|

End.

I would really appreciate if you take the time and rate my tab.Also, I hope it will help you
in playing this song, and I'm probably gonna put another Dot Hacker tab soon.

Tap to rate this tab
 
# A B C D E F G H I J K L M N O P Q R S T U V W X Y Z