Song name
# A B C D E F G H I J K L M N O P Q R S T U V W X Y Z

Doubledrive - Freightrain tab

Band/Artist - Doubledrive
Song - Freightrain
Tuning- Drop D


This is a pretty simple song, quite easy. No hard solos or nothing like that. Its really 
though and I love Doubledrive.

I think my tab is quite accurate, and its my first tab so take it easy with me. So enjoy!


Theres sort of weird noises at the start, but the guitar comes in 00:18 seconds of the 
with no other instruments.

intro:                                      (Second guitar comes in here)
|-------------------------------------------|-------------------------------------------|
|-------------------------------------------|-------------------------------------------|
|-------------------------------------------|-------------------------------------------|
|-------------------------------------------|-------------------------------------------|
|--2---2-2-0-0-0-0h2-----------------------0|--2-2-2-2-0-0-0-0h2-----------------------0|
|-------4-----------4p2-0-0-0-0h2-4-2-2-2h4-|-------4-----------4p2-0-0-0-0h2-4-2-2-2h4-|

(Singing comes in here) verse:
|-------------------------------------------|-------------------------------------------|
|-------------------------------------------|-------------------------------------------|
|-------------------------------------------|-------------------------------------------|
|-------------------------------------------|-------------------------------------------|
|--2-2-2-2-0-0-0-0h2-----------------------0|--2-2-2-2-0-0-0-0h2-----------------------0|
|-------4-----------4p2-0-0-0-0h2-4-2-2-2h4-|-------4-----------4p2-0-0-0-0h2-4-2-2-2h4-|


|------------|
|------------|
|7--4~~~~~~--|
|------------|
|------------|
|------------|

(Drums come in here)
|-------------------------------------------|-------------------------------------------|
|-------------------------------------------|-------------------------------------------|
|-------------------------------------------|------------------------------------------2|
|-------------------------------------------|------------------------------------------2|
|--2-2-2-2-0-0-0-0h2-----------------------0|--2-2-2-2-0-0-0-0h2-----------------------0|
|-------4-----------4p2-0-0-0-0h2-4-2-2-2h4-|-------4-----------4p2-0-0-0-0h2-4-2-2-2h4-|

chorus:
|----------------------|----------------------|----------------------|----------------------|
|----------------------|----------------------|----------------------|----------------------|
|4444x-----------------|4444x-----------------|4444x-----------------|4444x-----------------|
|4444x4444-2p0000-2222-|4444x4444-2p0000-2222-|4444x4444-2p0000-2222-|4444x4444-2p0000-2222-|
|2222x4444-2p0000-2222-|2222x4444-2p0000-2222-|2222x4444-2p0000-2222-|2222x4444-2p0000-2222-|
|-----4444-2p0000-2222-|-----4444-2p0000-2222-|-----4444-2p0000-2222-|-----4444-2p0000-2222-|

|------------|
|------------|
|/7~~~~~~~~~~|
|------------|
|------------|
|------------|

Verse:
|---------------------------------------------|-------------------------------------------|
|---------------------------------------------|-------------------------------------------|
|---------------------------------------------|-------------------------------------------|
|---------------------------------------------|-------------------------------------------|
|--2---2-2-0-0-0-0h2-----------------------2-0|--2-2-2-2-0-0-0-0h2-----------------------0|
|-------4-----------4p2-0-0-0-0h2-4-2-2-2h4---|-------4-----------4p2-0-0-0-0h2-4-2-2-2h4-|

|---------------------------------------------|-------------------------------------------|
|---------------------------------------------|-------------------------------------------|
|---------------------------------------------|------------------------------------------2|
|---------------------------------------------|------------------------------------------2|
|--2-2-2-2-0-0-0-0h2-----------------------2-0|--2-2-2-2-0-0-0-0h2-----------------------0|
|-------4-----------4p2-0-0-0-0h2-4-2-2-2h4---|-------4-----------4p2-0-0-0-0h2-4-2-2-2h4-|

chorus:
|----------------------|----------------------|----------------------|----------------------|
|----------------------|----------------------|----------------------|----------------------|
|4444x-----------------|4444x-----------------|4444x-----------------|4444x-----------------|
|4444x4444-2p0000-2222-|4444x4444-2p0000-2222-|4444x4444-2p0000-2222-|4444x4444-2p0000-2222-|
|2222x4444-2p0000-2222-|2222x4444-2p0000-2222-|2222x4444-2p0000-2222-|2222x4444-2p0000-2222-|
|-----4444-2p0000-2222-|-----4444-2p0000-2222-|-----4444-2p0000-2222-|-----4444-2p0000-2222-|

solo 1:(backing for solo is just the chorus)
|-------------------7---7p5-------/12-10~~---10(12)----------------------------|
|----------------77----------5----------------------12-12--12p10---7p5-5-5-5p3-|
|/7~~--7-6~~-------------------------------------------------------------------|
|----4-------4-----------------------------------------------------------------|
|------------------------------------------------------------------------------|
|------------------------------------------------------------------------------|

 --------------------5-------------57---------------------------------------------|
3-3-3p2-2-2-5~~~--/7-7-6~~7-----/7---6~~~5~~~3------333p2-222h3-0~~~~-5--3--0~----|
----------------------------------------------------------------------------------|
----------------------------------------------------------------------------------|
----------------------------------------------------------------------------------|
----------------------------------------------------------------------------------|

(this bit has no destortion, its only the guitar)
|---------------------|----------0~~~~~~~|
|---------------------|----------0~~~~~~~|
|4444-----------------|4444x-----7~~~~~~-|
|44444444-2p0000-2222-|4444x4444x7~~~~~~-|
|22224444-2p0000-2222-|2222x4444x5~~~~~~-|
|----4444-2p0000-2222-|-----4444x--------|

Not sure about this next part, I think its like this.
|---7---7-----7----7----7h9p7--|---7---7-----7----7------|
|--7-7-5-5-4-5-55-7------------|--7-7-5-5-4-5-55-7--7-5--|
|-4---4-----7------------------|-4---4-----------------7-|
|------------------------------|-------------------------|
|------------------------------|-------------------------|
|------------------------------|-------------------------|

chorus:(play the above riff through this chorus)
|----------------------|----------------------|----------------------|
|----------------------|----------------------|----------------------|
|4444x-----------------|4444x-----------------|4444x-----------------|
|4444x4444-2p0000-2222-|4444x4444-2p0000-2222-|4444x4444-2p0000-2222-|
|2222x4444-2p0000-2222-|2222x4444-2p0000-2222-|2222x4444-2p0000-2222-|
|-----4444-2p0000-2222-|-----4444-2p0000-2222-|-----4444-2p0000-2222-|

solo 2: (backing for the solo is just the chorus again)
|--5----------5------------5-----------5-7----------5----------5-7---------------|
|/7-7-6~~7--/7-7-6~~5-3--/7-7-6~~7--/7----6~~5-3--/7-7-6~~7--/7---6~~5~~3~~~~2~~0|
|--------------------------------------------------------------------------------|
|--------------------------------------------------------------------------------|
|--------------------------------------------------------------------------------|
|--------------------------------------------------------------------------------|

Thats the whole song. I think its acurate, but bair in mind it is my first tab. So cheers.
Tap to rate this tab
# A B C D E F G H I J K L M N O P Q R S T U V W X Y Z