Song name
# A B C D E F G H I J K L M N O P Q R S T U V W X Y Z

Doubledrive - Imprint tab

Help us improve GuitareTab! Take a short survey!
doubledrive.com

From the album "Blue In The Face"


||
||
||.
||. = Repeat
||
||




Inro
||-------------------------------------1-----------------||
||------6---------6---------5----------1-----------------||
||.-----5---------7---------5----------3----------------.||
||.-----8---------7---------5----------3----------------.||
||------5---------5---------3----------1-----------------||
||---0---------0---------0----------0--------------------||



Verses
||--------------------1--------------------------||
||--------------------1--------------------------||
||.-------------------3-------------------------.||
||.-------------------3-------------------------.||
||---0----------3-----1-\-\-\------5----3--------||
||---0-\-\-\----3------------------5----3--------||


Chorus
---1--------------------------------1-------------------
---1--------------------5-----------1-------------------
---3--------------------5-----------3-------------------
---3--------------------5-----------3-------------------
---1-\-\-\---0----------3-\-\-\-----1-\-\-\-------------
-------------0-\-\-\------------------------------------


Chorus 2 (played at the end)
||------------------------------------------------------||
||----6----------6----------5---------------------------||
||.---5----------7----------5--------------------------.||
||.---8----------7----------5--------------------------.||
||----5-\-\-\----5-\-\-\----3-\-\-\----5-------7--------||
||-------------------------------------5-\-\-\-7--------||




I'm almost positive this is absolutely correct,

So try it out and email me with any comments or corrections at 

greg_shuck@yahoo.com
Related for Imprint tab