Guitaretab - guitar tabs
Song name
# A B C D E F G H I J K L M N O P Q R S T U V W X Y Z

Doubledrive - Million People tab

-------------------------------------------------------------------------------
			Million People (Solo) - DoubleDrive
-------------------------------------------------------------------------------
Tabbed by: j_hawker
Email: j_hawker@comcast.net

Tuning: Standard, E A D G B e

Mild distortion

(2:20)
For you...                                    for you...
e|-----------------------------------------------------------------------------|
B|----8---7b8----------------8---7b8----------------8---7b8--------------------|
G|-----------------------------------------------------------------------------|
D|--9---9-----9/109-------9---9-----8h97--------9---9-----9/109----------------|
A|-----------------------------------------------------------------------------|
E|-----------------------------------------------------------------------------|
[ Tab from: http://www.guitaretab.com/d/doubledrive/59703.html ]
                       For    you...
e|-----------------------------------------------------------------------------|
B|----8---7-8/108-12-----------------------------------------------------------|
G|--------------------9--------------------------------------------------------|
D|--9---9----------------7-5-7/9-97-7-4-5-4~-----5-7~-5-4-7~-5-4-5~------------|
A|--------------------------------------------5-7------------------------------|
E|-----------------------------------------------------------------------------|

     For       you...
e|------------------------------------------------------1715-------------------|
B|--5---5ó(4)/555--777-55-5--10101010-10/12-12/15-15-15-------1715/17~---------|
G|-----------------------------------------------------------------------------|
D|----5------------------------------------------------------------------------|
A|-----------------------------------------------------------------------------|
E|-----------------------------------------------------------------------------|

The last sliding bit is actually done on a second guitar, but itís easy enough to manage 
one. Corrections/suggestions are welcome, j_hawker@comcast.net; put ďMillion People 
in the subject so I know itís not spam, if you would.

| /  slide up
|   slide down
| h  hammer-on
| p  pull-off
| b  bend
| ~  vibrato
| +  harmonic
| x  Mute note
===============================================================================
Related for Million People tab