Song name
# A B C D E F G H I J K L M N O P Q R S T U V W X Y Z

Doublestack Heartattack - Null tab

Tabbed by:Haasyypantz
Email:Mcmcjabbers@yahoo.com

Tuning:Drop D

e|---------------------------------------------------------------------------|
B|---------------------------------------------------------------------------|
G|---------------------------------------------------------------------------|
D|---------------------------------------------------------------------------|
A|-8-7-10-7-8-7-10-7-8-10-7-8-7-10-7-10-9-12-9-10-12-9-10-9-12-9-10-8-7-10-7-|
E|---------------------------------------------------------------------------|

e|----------------------------------12---------------------------------------|
B|------------------------------12-------------------------------------------|
G|---------------------------12----------------------------------------------|
D|---------------------------------------------------------------------------|
A|8-7-10-7-8-10-7-8-7-10-7-7-------------8--8--5-5-5-5-0--00--0--0--00-------|
E|---------------------------------------8--8--5-5-5-5-0--00--0--0--00-------|
  |        slows down        |                         x  xx  x  x  xx
Tap to rate this tab
 
# A B C D E F G H I J K L M N O P Q R S T U V W X Y Z