Song name
# A B C D E F G H I J K L M N O P Q R S T U V W X Y Z

Doubting Robinson - Last Week tab

-------------------------------------------------------------------------------
			     LAST WEEK - DOUBTING ROBINSON
-------------------------------------------------------------------------------

Tabbed by: Doubting286@aol.com

Verse
e|------------------------------|
B|------------------------------|
G|5-----------------------------|
D|5-2-7-3-----------------------|
A|3-2-7-3-x4--------------------|
E|--0-5-1-----------------------|

Chorus
e|----0-3-1---------------------|
B|----2-3-1---------------------|
G|5-7-2-0-2-----7---------------|
D|5-7-2-0-3-x2--7---------------|
A|3-5-0-2-3-----5---------------|
E|------3-1---------------------|

Interlude
e|------------------------------|
B|------------------------------|
G|5-----------------------------|
D|5-5-3-3-----------------------|
A|3-5-3-3-x2-x4pm---------------|
E|--3-1-1-----------------------|

Order: Verse, Chorus, Verse, Chorus, Interlude, Chorus. 
That's more or less it, a few riffs missin that I couldn't quite get.

Tap to rate this tab
# A B C D E F G H I J K L M N O P Q R S T U V W X Y Z