Song name
# A B C D E F G H I J K L M N O P Q R S T U V W X Y Z

Doubting Robinson - The End Of The Boardwalk tab

-------------------------------------------------------------------------------
The End Of The Boardwalk-Doubting Robinson
TABBED BY: Doubting286@aol.com
-------------------------------------------------------------------------------

By: theladiesman

Verse
e|3--2--3--5-----------------------------------------------------------------|
B|3--3--1--4-----------------------------------------------------------------|
G|0--2--0--5-----------------------------------------------------------------|
D|0--0--2--5---x2------------------------------------------------------------|
A|2-----3--3-----------------------------------------------------------------|
E|3--------------------------------------------------------------------------|

Chorus
e|0--3--3-3--2-3-2-0---------------------------------------------------------|
B|0--1--1-0--3-3-3-3---------------------------------------------------------|
G|0--0--0-0--2-2-2-2---------------------------------------------------------|
D|2--2--0-0--0-0-0-0-x2------------------------------------------------------|
A|2--3--2-2------------------------------------------------------------------|
E|0-----3-3------------------------------------------------------------------|

Bridge
e|---------------------------------------------------------------------------|
B|--0-----0----0---0-----1---0----0--3-0h1p0---------------------------------|
G|---0-----0----0---0-----0---0----0--2--------------------------------------|
D|------------------------------00--0--------x2------------------------------|
A|-----------33--33----------------------------------------------------------|
E|00--0-00--0--------0-33--33--3---------------------------------------------|

e|0-3-3----------------------------------------------------------------------|
B|0-1-1-3--------------------------------------------------------------------|
G|0-0-0-0--------------------------------------------------------------------|
D|2-2-0-4-x2-----------------------------------------------------------------|
A|2-3-2-5--------------------------------------------------------------------|
E|0---3----------------------------------------------------------------------|
 Pm-------------------------------------
That's basically the song. I don't know if this is how it is on CD cuz I only heard the live version on mp3.com.  enjoy!

===============================================================================


Tap to rate this tab
# A B C D E F G H I J K L M N O P Q R S T U V W X Y Z