Song name
# A B C D E F G H I J K L M N O P Q R S T U V W X Y Z

Doug Martsch - Woke Up This Morning With My Mind On Jesus tab

-------------------------------------------------------------------------------
	Woke Up This Morning With My Mind On Jesus- Doug Martsch
-------------------------------------------------------------------------------
Tabbed by: Jeff
Email:

Tuning: standard (this might be in another tuning, consider the way he's also finger 
beneath this line, maybe open G?)

e|---------------------------------------------------------------------------|
B|---------------------------------------------------------------------------|
G|----------------3-------------/7--5--3-------5p3--5p3--5p3--5b6p3-----3----|
D|--0--3----5--5-----5--3--5--------------3--------------------------5-----5-|
A|---------------------------------------------------------------------------|
E|---------------------------------------------------------------------------|

e|---------------------------------------------------------------------------|
B|---------------------------------------------------------------------------|
G|----------------3-2--0--2----3-2--0--2---3-2--0--2h3--0--------------------|
D|-/7--5---3-----------------------------------------------------------------|
A|------------5--------------------------------------------------------------|
E|---------------------------------------------------------------------------|

It's the blues, so just repeat that the whole song! very Neil Young-esque

| /  slide up
| \  slide down
| h  hammer-on
| p  pull-off
| ~  vibrato
| +  harmonic
| x  Mute note
===============================================================================
Tap to rate this tab
# A B C D E F G H I J K L M N O P Q R S T U V W X Y Z