Doug Paisley - End Of The Day tab

Tabbed by: Rick Ammazzini
Email: webpirate@hotmail.com
Tuning: Standard
MySpace: http://www.myspace.com/dougpaisley

INTRO:

E |-1--------------------------------------------------------------------------------------|
A |----------------------------------------------------------------------------------------|
D |------------3--------3--------------------------------------3------3--------------------|
G |----2-2-2-0---0-2-0------0-2h----0-2h-------0-2h-1h-0-0-0-0---2-0-----0-2h----0-2h------|
B |------------------------------1--------1-----------------------------------1--------1---|
E |----------------------------------------------------------------------------------------|

E |----------------------------------------------------------|
A |----------------------------------------------0-2-3----3--|
D |---------------3--------0----------------------------0----|
G |-------2-0-2-0---0-2-0------0-2h----0-2h------------------|
B |-1-1-----------------------------3-------3----------------|
E |----------------------------------------------------------|


A#      C               F


F                 C          F
At the end of the long, long day
C                                   F
come go with me in the blue and the gray
              F
there's no up there's no down
F            C      Dm
And there's no way around
A#      C         F
At the end of the day


F                    C                        F
i'll follow the line where the land meets the sun
C                                        F
i looked to the hills where the dark has begun
   F                          C            Dm
my fears are reserved for the deeds of the day
A#        C      F
that are faded away...

Chorus:
              A#
I'm gonna get by
A#            F
I'm gonna get through
F                   A#
When the river runs dry
A#                 F
I'm gonna cross to you
           F
There's no up there's no down
            C      Dm
And there's no way around
A#      C         F
At the end of the day

{ORGAN SOLO:}

F                                C        F
You're heart it is worn You're a bleeding machine
C                         F
A ghost hand lifts you up out of your dreams
F                              C             Dm
See the sunlight combed on the shapes at the fray
A#     C          F
At the end of the day


Chorus:
              A#
I'm gonna get by
A#            F
I'm gonna get through
F                   A
When the river runs dry
A                  A#     F
I'm gonna cross to you
           F
There's no up there's no down
            C      Dm
And there's no way around
A#     C          F
At the end of the day


OUTRO:

E |-1--------------------------------------------------------------------------------------|
A |----------------------------------------------------------------------------------------|
D |------------3--------3--------------------------------------3------3--------------------|
G |----2-2-2-0---0-2-0------0-2h----0-2h-------0-2h-1h-0-0-0-0---2-0-----0-2h----0-2h------|
B |------------------------------1--------1-----------------------------------1--------1---|
E |----------------------------------------------------------------------------------------|

E |----------------------------------------------------------|
A |----------------------------------------------0-2-3----3--|
D |---------------3--------0----------------------------0----|
G |-------2-0-2-0---0-2-0------0-2h----0-2h------------------|
B |-1-1-----------------------------3-------3----------------|
E |----------------------------------------------------------|


A#      C               F
Tap to rate this tab
 
# A B C D E F G H I J K L M N O P Q R S T U V W X Y Z