Guitaretab - guitar tabs
Song name
# A B C D E F G H I J K L M N O P Q R S T U V W X Y Z

Dougie Maclean - Caledonia tab

Caledonia by Dougie MacLean - Tab by Jeff Kalmar

This Tab is based on Dougieís performance on Feb. 29, 2004 at Market Hall Theatre, 
Ontario (http://www.youtube.com/watch?v=KMpSg78s684).  The tuning and capo position shown 
duplicate the sound of that performance, although in the video
he has 2 capos on his guitar, one at the first fret and one at the fourth.

I canít tell whether either or both of those capos are modified in some way, so I went 
what sounded right.

Also, his fingerings are very clearly visible in the video.

Tuning (Best Guess): C G C G C E Capo IV Key: E  Time Signature: 3/4

Intro:

G# -5-----5p3p0---0-|-0-----0-------|-------------0---|-------0------|
E  ---0---------5---|-0-----------0-|-2-----4p2p0---0-|---------0----|
B  -----0-----------|-----0---0h2---|---0-------------|-0---------0--|
E  -0---------------|-0-------------|-----0-----------|-0---0---0----|
B  -----------------|---------------|-----------------|--------------|
E  -----------------|---------------|-5---------------|--------------|


G# -5-----5p3p0---0-|-0-----0-------|-------------0---|-------0-----:-|
E  ---0---------5---|-0-----------0-|-2-----4p2p0---0-|-0-------0---:-|
B  -----0-----------|-----0---0h2---|---0-------------|-----------0-:-|
E  -0---------------|-0-------------|-----0-----------|-0---0---0---:-|
B  -----------------|---------------|-----------------|-------------:-|
E  -----------------|---------------|-5---------------|-------------:-|


G# --------------|-------------|--------------|-0-----0------|
E  -------0------|-------0-----|-------0------|---0-----0----|
B  -----0--------|-----0-------|-----0-----0--|-----0-----0--|
E  ---5--------0-|---7-------0-|---9--------9-|--------------|
B  -7--------7---|-9-------9---|-10------10---|-10------10---|
E  --------------|-------------|--------------|--------------|


G# |:-------------|-------------|-------------|--------------|
E  |:-------0-----|-------0-----|-------0-----|-------0------|
B  |:-----0---0---|-----0---0---|-----0---0---|---0-----0----|
E  |:---0-------0-|---5-------0-|---7-------0-|-----9-----9--|
B  |:-5-------5---|-7-------7---|-9-------9---|-10------10---|
E  |:-------------|-------------|-------------|--------------|
    I donít know... you can see.. changes...    over me, In these

G# -------------|-------------|-------------|-------------|-0-----0------|
E  -------0-----|-------0-----|-------0-----|-------0-----|---0-----0----|
B  -----0---0---|-----0---0---|-----0---0---|---0-----0---|-----0-----0--|
E  ---0-------0-|---5-------0-|---7-------0-|-----9-----9-|--------------|
B  -5-------5---|-7-------7---|-9-------9---|-10------10--|-10------10---|
E  -------------|-------------|-------------|-------------|--------------|
   last few days...been afraid..might drift a-way,                So I've been

G# -------------|-------------|-------------|--------------|
E  -------0-----|-------0-----|-------0-----|-------0------|
B  -----0---0---|-----0---0---|-----0---0---|---0-----0----|
E  ---0-------0-|---5-------0-|---7-------0-|-----9-----9--|
B  -5-------5---|-7-------7---|-9-------9---|-10------10---|
E  -------------|-------------|-------------|--------------|
   telling old stories...      make me think...where I came from

G# -------------|-------------|-------------|-------------|-0-----0------|
E  -------0-----|-------0-----|-------0-----|-------0-----|---0-----0----|
B  -----0---0---|-----0---0---|-----0---0---|---0-----0---|-----0-----0--|
E  ---0-------0-|---5-------0-|---7-------0-|-----9-----9-|--------------|
B  -5-------5---|-7-------7---|-9-------9---|-10------10--|-10------10---|
E  -------------|-------------|-------------|-------------|--------------|
  that's the reason why I seem so far away to-day                         But


Chorus:

G# -------------|-------------|-------------|--------------|
E  -0-----0-----|-------2-----|-0-----0-----|-------0------|
B  ---0-----0---|-----0---0---|---0-----0---|---0-----0----|
E  -----0-----0-|---2-------2-|-----0-----0-|-----5-----5--|
B  -5-----------|-0-----------|-2-------0---|--------------|
E  -------------|-------------|-------------|-5-------5----|
   let me tell... love you...   think about...time

G# -------------|-------------|-------------|--------------|
E  -0-----0-----|-------0-----|-------2-----|-0-----0------|
B  ---0-----0---|---------0---|-----0---0---|---0-----0----|
E  -----5-----5-|-0---0-----0-|---2---------|-----0-----0--|
B  -------------|---5---------|-0-----------|-5------------|
E  -5-------5---|-------------|-------------|--------------|
    Caledonia you're calling... go  -  ing    home         For

G# -------------|-------------|-------------|--------------|
E  -0-----0-----|-------2-----|-0-----0-----|-------0------|
B  ---0-----0---|-----0---0---|---0-----0---|---0-----0----|
E  -----0-----0-|---2-------2-|-----0-----0-|-----5-----5--|
B  -5-----------|-0-----------|-2-------0---|--------------|
E  -------------|-------------|-------------|-5-------5----|
   if I should... stranger...  it would make...sad
[ Tab from: http://www.guitaretab.com/d/dougie-maclean/127328.html ]
                               _____________________________
                              1                             |
G# -------------|-------------|-------------|-------------:-|
E  -------0-----|-------2-----|-0-----0-----|-------2-----:-|
B  ---0-----0---|-----0---0---|---0-----0---|-----0---0---:-|
E  -----5-----5-|---2-------2-|-----0-----0-|---2-------2-:-|
B  -------------|-0-----------|-5-------5---|-0-----------:-|
E  -5-------5---|-------------|-------------|-------------:-|  (Repeat back to Verse)
   Caledonia's... everything... had


   ___________________
  2
G# -5-----5p3p0---0-|-0-----0-------|-------------0---|-------0------|
E  ---0---------5---|-0-----------0-|-2-----4p2p0---0-|---------0----|
B  -----0-----------|-----0---0h2---|---0-------------|-0---------0--|
E  -0---------------|-0-------------|-----0-----------|-0---0---0----|
B  -----------------|---------------|-----------------|--------------|
E  -----------------|---------------|-5---------------|--------------|
    had.


G# -5-----5p3p0---0-|-0-----0-------|-------------0---|-------0------|
E  ---0---------5---|-0-----------0-|-2-----4p2p0---0-|-0-------0----|
B  -----0-----------|-----0---0h2---|---0-------------|-----------0--|
E  -0---------------|-0-------------|-----0-----------|-0---0---0----|
B  -----------------|---------------|-----------------|--------------|
E  -----------------|---------------|-5---------------|--------------|

G# -5-----5p3p0---0-|-0-----0-------|-------------0---|-------0------|
E  ---0---------5---|-0-----------0-|-2-----4p2p0---0-|---------0----|
B  -----0-----------|-----0---0h2---|---0-------------|-0---------0--|
E  -0---------------|-0-------------|-----0-----------|-0---0---0----|
B  -----------------|---------------|-----------------|--------------|
E  -----------------|---------------|-5---------------|--------------|

G# -5-----5p3p0---0-|-0-----0-------|-------------0---|-------0------|
E  ---0---------5---|-0-----------0-|-2-----4p2p0---0-|-0-------0----|
B  -----0-----------|-----0---0h2---|---0-------------|-----------0--|
E  -0---------------|-0-------------|-----0-----------|-0---0---0----|
B  -----------------|---------------|-----------------|--------------|
E  -----------------|---------------|-5---------------|--------------|

G# --------------|-------------|--------------|-0-----0-----:-|
E  -------0------|-------0-----|-------0------|---0-----0---:-|
B  -----0--------|-----0-------|-----0-----0--|-----0-----0-:-|
E  ---5--------0-|---7-------0-|---9--------9-|-------------:-|
B  -7--------7---|-9-------9---|-10------10---|-10------10--:-|
E  --------------|-------------|--------------|-------------:-|  (Repeat back to Verse)


   ___________________
  3
G# -5-----5p3p0---0-|-0-----0-------|-------------0---|-------0------|
E  ---0---------5---|-0-----------0-|-2-----4p2p0---0-|---------0----|
B  -----0-----------|-----0---0h2---|---0-------------|-0---------0--|
E  -0---------------|-0-------------|-----0-----------|-0---0---0----|
B  -----------------|---------------|-----------------|--------------|
E  -----------------|---------------|-5---------------|--------------|
    had.


G# -5-----5p3p0---0-|-0-----0-------|-------------0---|-------0------|
E  ---0---------5---|-0-----------0-|-2-----4p2p0---0-|-0-------0----|
B  -----0-----------|-----0---0h2---|---0-------------|-----------0--|
E  -0---------------|-0-------------|-----0-----------|-0---0---0----|
B  -----------------|---------------|-----------------|--------------|
E  -----------------|---------------|-5---------------|--------------|

G# -5-----5p3p0---0-|-0-----0-------|-------------0---|-------0------|
E  ---0---------5---|-0-----------0-|-2-----4p2p0---0-|---------0----|
B  -----0-----------|-----0---0h2---|---0-------------|-0---------0--|
E  -0---------------|-0-------------|-----0-----------|-0---0---0----|
B  -----------------|---------------|-----------------|--------------|
E  -----------------|---------------|-5---------------|--------------|

G# -5-----5p3p0---0-|-0-----0-------|-------------0---|-------0------|
E  ---0---------5---|-0-----------0-|-2-----4p2p0---0-|-0-------0----|
B  -----0-----------|-----0---0h2---|---0-------------|-----------0--|
E  -0---------------|-0-------------|-----0-----------|-0---0---0----|
B  -----------------|---------------|-----------------|--------------|
E  -----------------|---------------|-5---------------|--------------|

G# --------------|-------------|--------------|-0-----0------|
E  -------0------|-------0-----|-------0------|---0-----0----|
B  -----0--------|-----0-------|-----0-----0--|-----0-----0--|
E  ---5--------0-|---7-------0-|---9--------9-|--------------|
B  -7--------7---|-9-------9---|-10------10---|-10------10---|
E  --------------|-------------|--------------|--------------|

G# -0-----0-----|-0-----0-----|-0-----------||
E  ---0-----0---|---0-----0---|-0-----------||
B  -----0-----0-|-----0-----0-|-0-----------||
E  -------------|-------------|-0-----------||
B  -10------10--|-10------10--|-0-----------||
E  -------------|-------------|-0-----------||
Related for Caledonia tab