Dougie Maclean - Scythe Song tab

Tuning GADGBE
Capo 5th fret (Optional)

There are some repeated parts. You'll have to learn them for yourself, but once you get 
the main parts down, it won't be a problem.

E|--2-----------------0-0-------------------------|
B|------0-0--3--3-----------0---------------------|
G|---------0------------0-------------------------|
D|--------------2---------------------------------|
A|------------------------------------------------|
G|--2---------------------------------------------|

E|--0---------------------------------------------|
B|----------------0-0-----------------------------|
G|----------0-0---------0-------------------------|
D|-------0----------0-----------------------------|
A|------------------------------------------------|
G|--0---------0-----------------------------------|

E|-------------3-2-2-------0-0--------------------|
B|-----1--------------3-3--------1-1--------------|
G|----0--------------------------------0----------|
D|---2-------2----------2----------2--------------|
A|------------------------------------------------|
G|-0--------0------0---------0--------------------|

^Repeat Once^

E|------------------------0-----------------------|
B|-0-----------0-0--------------------0-0---------|
G|--------0-0--------0-----------0-0--------0-----|
D|-----0---------0-----------0----------0---------|
A|------------------------------------------------|
G|-0--------0-------------0--------0--------------|

E|------------------------------------------------|
B|---------------------1-----------------1-1------|
G|-------------0-0-----------------0-0---------0--|
D|--------2----------------------2---------2------|
A|------------------------------------------------|
G|-0-------------0--------0----------0------------|

E|--------------------------|
B|----------------1-1-------|
G|----------0-0---------0---|	X2
D|-------2----------2-------|
A|--------------------------|
G|-0----------0-------------|

E|------------------------------------------------|
B|--------0---------------3-----------0-------0---|
G|------2---------0-2--------------2--------2-----|
D|----0-----------5--------------5--------0-------|
A|------------------------------------------------|
G|-0------------0-------------0---------0---------|

E|-------------------------- |------------------------|
B|-------1------------------ |-----------1-1----------|
G|-----0--------------0----- |------0-0-------0-------|  X3
D|---2-------------2-------- |----2--------2----------|
A|-------------------------- |------------------------|
G|-0----------0------------- |-0------0---------------|

E|------------------------------------------------|
B|--------0---------------3-----------0-------0---|
G|------2---------0-2--------------2--------2-----|
D|----0-----------5--------------5--------0-------|
A|------------------------------------------------|
G|-0------------0-------------0---------0---------|

E|---------------------   |------------------------|
B|-------------1-1------  |-------------1-1--------|
G|--------2-2-------0---  |--------0-0---------0---|
D|-----2---------2------  |-----2---------2--------| X2
A|-0--------0----------   |---3------3-------------|
G|----------------------- |------------------------|

E|------------------------------------------------|
B|----------0-------------------------1-1---------|
G|-----0-0-------------0---------2-2-------0------|
D|-------2----------0---------2---------2---------|
A|-3------------3-2-2------0-------0--------------|
G|------------------------------------------------|

E|------------------------------------------------|
B|---------------1-1------------------------------|
G|--------0-0----------0--------------------------|   X2
D|-----2-----------2------------------------------|
A|-3--------3-------------------------------------|
G|------------------------------------------------|

E|------------------------------------------------|
B|----------3-----------3-------------------------|
G|-------2---------2-2----------------------------|
D|----0--------------0----------------------------|
A|-0------------0---------------------------------|
G|----------------------------0-------------------|
                              ^(Let ring for 1 bar)


E|---------------------------------------------------|
B|---------------1-----------------------------------|
G|--------0-0----------------------------------------|
D|-----2---------------------------------------------|
A|---------------------------------------------------|
G|-0--------0----------------------------------------|

E|-----------------------0---0-------------0--------|
B|------------1-1---------------------1-1-----------|
G|-------0-0--------0-----------0-0-----------------|
D|----2---------2------------2----------2-----------|
A|--------------------------------------------------|
G|-0-------0-------------0--------0-----------------|

E|-0-----------------------------------------------|
B|---------------1-1-------------0--------3--------|
G|----------0-0---------0------2--------2----------|
D|-------2---------2---------0-------5-------------|
A|-------------------------------------------------|
G|-0----------0------------0--------0--------------|

E|------------------------------------------------|
B|---------0------------0-----------1-1-----------|
G|-------2-----------2-----------0----------------|
D|----5-----------0-----------2------------2------|
A|------------------------------------------------|
G|-0-----------0-----------0----------0-----------|

E|-----------------------0---0------------0-------|
B|--------------1-1------------------1-1----------|
G|--------0-0--------0----------0-0---------------|
D|-----2----------2----------2---------2----------|
A|------------------------------------------------|
G|-0--------0------------0--------0---------------|

E|-0--------------------------------------------------|
B|----------------1-1----------------0-----------3----|
G|-----------0-0-------0----------2------------2------|
D|-------2----------2----------0------------5---------|
A|----------------------------------------------------|
G|-0-----------0------------0-------------0-----------|


E|---------------------------------0--0-------------|
B|----------0------------0--3---3-------------------|
G|-------2------------2---------0----------0--------|
D|----5------------0--------------------------------|
A|--------------------------3---------3-------------|
G|-0------------0-----------------------------------|

E|------------------------------------------------|
B|------------3-3------------------3-3------------|
G|-------0-0--------0---------0-0--------0--------|
D|----2---------2----------2---------2------------|
A|-3-------3-----------3--------3-----------------|
G|------------------------------------------------|

E|-2-------------0-0--------------------------------|
B|----0-0--3-3---------0----0----------0-0----------|
G|------0----------0--------------0-0-------0-------|
D|-----------------------------0---------0----------|
A|-2---------2--------------------------------------|
G|--------------------------0-------0---------------|
Tap to rate this tab
 
# A B C D E F G H I J K L M N O P Q R S T U V W X Y Z