Song name
# A B C D E F G H I J K L M N O P Q R S T U V W X Y Z

Douwe Bob - Standing Here Helpless tab

Standing here helpless - Douwe Bob

This tab probaply isn't 100% correct, but it should give you a good indication on how to 
play the song. Good Luck!

Also it's not the complete tab, I'm working on it and the complete tab should be out soon!

Open E tuning

Low to High : E-B-E-G#-B-E

Intro:

E  --------12^--------------------0--0--0--0--0--0--0-----0--2s4p0--------|
B  --------12^-----------------0--0--0--0--0--0--0--0--0------------0-----|
G# --------12^--------------0-----5--5--5--7--7--7--0------------------0--|
E  -------------0--2s5s4p0--------0--0--0--0--0--0--0---------------------|
B  -------------------------------0--0--0--0--0--0--0---------------------|
E  ----0--------------------------5--5--5--7--7--7--0---------------------|

E  ----0--5--4--0--0--0--0--0------------------------0--0--0--0--0--0--|
B  ----0-----------0--0--0--0---------------------0--0--0--0--0--0--0--|
G# ----5-----------7--7--8--0--0-----0h1p0-----0-----5--5--5--7--7--7--|
E  ----0-----------0--0--0--0-----2---------0--------0--0--0--0--0--0--|
B  ----0-----------0--0--0--0------------------------0--0--0--0--0--0--|
E  ----5-----------7--7--7--0------------------------5--5--5--7--7--7--|

E  ----0-----0--2s4p0--------0--5--4--0--0--0--0--0--0--0--0--0--0--0--12^--/
B  ----0--0------------0-----0-----------0--0--0--0--0--0--0--0--0--0--12^--/
G# ----0------------------0--5-----------7--7--7--7--7--7--7--7--7--8--12^--/
E  ----0---------------------0-----------0--0--0--0--0--0--0--0--0--0--0----/
B  ----0---------------------0-----------0--0--0--0--0--0--0--0--0--0--0----/
E  ----0---------------------5-----------7--7--7--7--7--7--7--7--7--7--0----/

Use the video for the next part of the song.
I've cut the song in parts part 1 (showing below) is the part until:
"I'm not your savior, because I'm not free.

Part 1 [I'm sorry I'm not the one]:

E  ----------------------------0--------0-------0-------|
B  -------0-----0--------------0--------0-------0-------|
G# ----------------------------5--------7-------0-------|
E  ----0-----2-----s4p0--------0-[x13]--0-[5x]--0-[4x]--|
B  ----------------------0-----0--------0-------0-------|
E  -------------------------5--5--------7-------0-------|

E  ----------------------------------------/
B  -------------0-----------------0--------/
G# ----------1-----1-----------0-----0-----/
E  -------0-----------0-----0-----------0--/ [Repeat 2x]
B  ----2-----------------0-----------------/
E  ----------------------------------------/

E  ----------------------------0--------|
B  -------0-----0--------------0--------|
G# ----------------------------5--------|
E  ----0-----2-----s4p0--------0-[13x]--|
B  ----------------------0-----0--------|
E  -------------------------5--5--------|

E  ----0-------0--------0--0--------0-------0--/
B  ----0-------0--------0--0--------0-------0--/
G# ----7-------7--------0--5--------7-------0--/
E  ----0-[5x]--0-[14x]--0--0-[13x]--0-[5x]--0--/
B  ----0-------0--------0--0--------0-------0--/
E  ----7-------9--------0--5--------7-------0--/


Part 2 [You had the time to flee]:

!!Listen to the music to hear the pattern!!

E  ----0--0--0--------0--0--------|
B  ----9--9--9--4--4--0--0--0--0--|
G# ----8--7--6--0--0--5--5--1--3--|
E  ----0--0--0--0--0--0--0--0--0--|
B  -------------2--x--0--0--2--4--|
E  ----------------4--5--4--------|

Part 2 soon to be finished!
Tap to rate this tab
 
# A B C D E F G H I J K L M N O P Q R S T U V W X Y Z