Song name
# A B C D E F G H I J K L M N O P Q R S T U V W X Y Z

Dover - Judas tab

-------------------------------------------------------------------------------
			     JUDAS - Dover
-------------------------------------------------------------------------------
Tabbed by:Luis Gustavo Hernández Collado
Email:ltavo_87@hotmail.com

Tuning:EADGBe

Intro
Guitar 1
e|-------0-------|
B|-----1---3-1-0-|
G|---2-----------|
D|-2-------------|
A|---------------|
E|---------------|

Guitar 1
e|-----------3-33-33-3-|
B|-1-11-11-1-0-00-00-0-|
G|-2-22-22-2-0-00-00-0-|X2
D|-2-22-22-2-0-00-00-0-|
A|-0-00-00-0-2-22-22-2-|
E|-----------3-33-33-3-|

Verse 1
(I don't care about what you say, because I just won't get it...)
Guitar 1
e|-----------3-33-33-3-|
B|-1-11-11-1-0-00-00-0-|
G|-2-22-22-2-0-00-00-0-|X4
D|-2-22-22-2-0-00-00-0-|
A|-0-00-00-0-2-22-22-2-|
E|-----------3-33-33-3-|

Chorus 1
(You lied! you lied! Jesus christ was only a man!...)
Guitar 1
e|-----------3-33-33-3-|
B|-1-11-11-1-0-00-00-0-|
G|-2-22-22-2-0-00-00-0-|X4
D|-2-22-22-2-0-00-00-0-|
A|-0-00-00-0-2-22-22-2-|
E|-----------3-33-33-3-|

Verse 2
(I don't care about what you say, because I just won't get it...)
Guitar 1
e|-----------3-33-33-3-|
B|-1-11-11-1-0-00-00-0-|
G|-2-22-22-2-0-00-00-0-|X4
D|-2-22-22-2-0-00-00-0-|
A|-0-00-00-0-2-22-22-2-|
E|-----------3-33-33-3-|

Chorus 2
(You lied! you lied! Jesus christ was only a man!...)
Guitar 1
e|-----------3-33-33-3-|
B|-1-11-11-1-0-00-00-0-|
G|-2-22-22-2-0-00-00-0-|X4
D|-2-22-22-2-0-00-00-0-|
A|-0-00-00-0-2-22-22-2-|
E|-----------3-33-33-3-|

Guitar 2
e|-----------3-33-33-3-|
B|-1-11-11-1-0-00-00-0-|
G|-2-22-22-2-0-00-00-0-|X4
D|-2-22-22-2-0-00-00-0-|
A|-0-00-00-0-2-22-22-2-|
E|-----------3-33-33-3-|

Interlude
(Can't stop shaking, can't stop shaking...)
Guitar 1
e|-----------3-33-33-3-|
B|-1-11-11-1-0-00-00-0-|
G|-2-22-22-2-0-00-00-0-|X4
D|-2-22-22-2-0-00-00-0-|
A|-0-00-00-0-2-22-22-2-|
E|-----------3-33-33-3-|

Guitar 2
e|-----------3-33-33-3-|
B|-1-11-11-1-0-00-00-0-|
G|-2-22-22-2-0-00-00-0-|X4
D|-2-22-22-2-0-00-00-0-|
A|-0-00-00-0-2-22-22-2-|
E|-----------3-33-33-3-|

Chorus 3
(You lied! you lied! Jesus christ was only a man!...)
Guitar 1
e|-----------3-33-33-3-|
B|-1-11-11-1-0-00-00-0-|
G|-2-22-22-2-0-00-00-0-|X4
D|-2-22-22-2-0-00-00-0-|
A|-0-00-00-0-2-22-22-2-|
E|-----------3-33-33-3-|

Guitar 2
e|---8-10-10---8-10-10---6-8-8---6-8-8-|
B|-------------------------------------|
G|-7---------7---------5-------5-------|X4
D|-------------------------------------|
A|-------------------------------------|
E|-------------------------------------|

Outro
(Is just a man...)
Guitar 1
e|-----------3-33-33-3-|
B|-1-11-11-1-0-00-00-0-|
G|-2-22-22-2-0-00-00-0-|X4
D|-2-22-22-2-0-00-00-0-|
A|-0-00-00-0-2-22-22-2-|
E|-----------3-33-33-3-|

Guitar 2
e|-(12)--(10)--(8)--(10)-|
B|-----------------------|
G|-9/7/9/7/9/7/5/7/5/7/5-|X4
D|-----------------------|
A|-----------------------|
E|-----------------------|
Tap to rate this tab
 
# A B C D E F G H I J K L M N O P Q R S T U V W X Y Z