Song name
# A B C D E F G H I J K L M N O P Q R S T U V W X Y Z

Dover - Territorial Pissings tab

-------------------------------------------------------------------------------
			 TERRITORIAL PISSINGS (LIVE NIRVANA COVER) - Dover
-------------------------------------------------------------------------------
Tabbed by:Luis Gustavo Hernández Collado
Email:ltavo_87@hotmail.com

Tuning:EADGBe

Intro
e|---------------------------|
B|---------------------------|
G|-6------------6----6-----6-|
D|-6---6-66---6----6-----6---|
A|-4r-------4----4-----4-----|
E|---------------------------|

e|---------------------------------------|
B|---------------------------------------|
G|----------1010101010101010-------------| X4
D|-77777777-1010101010101010-1212-12-12--|
A|-77777777-8-8-8-8-8-8-8-8--1212-12-12--|
E|-55555555------------------1010-10-10r-|

Chorus 1
(You gotta find a way, a better way, when I'm there!...)
e|---------------------------------------|
B|---------------------------------------|
G|----------1010101010101010-------------| X2
D|-77777777-1010101010101010-1212-12-12--|
A|-77777777-8-8-8-8-8-8-8-8--1212-12-12--|
E|-55555555------------------1010-10-10r-|

Verse 1
(Never met a wise man, if so it's a woman...)
e|---------------------------------------|
B|---------------------------------------|
G|----------1010101010101010-------------| X2
D|-77777777-1010101010101010-1212-12-12--|
A|-77777777-8-8-8-8-8-8-8-8--1212-12-12--|
E|-55555555------------------1010-10-10r-|

Chorus 2
(You gotta find a way, a better way, when I'm there!...)
e|---------------------------------------|
B|---------------------------------------|
G|----------1010101010101010-------------| X4
D|-77777777-1010101010101010-1212-12-12--|
A|-77777777-8-8-8-8-8-8-8-8--1212-12-12--|
E|-55555555------------------1010-10-10r-|

Interlude
e|---------------------|
B|---------------------|
G|---------------------|X4
D|----7----7----7----7-|
A|----7----7----7----7-|
E|-55-5-55-5-55-5-55-5-|

Verse 2
(Just because you're paranoid...)
e|---------------------------------------|
B|---------------------------------------|
G|----------1010101010101010-------------| X2
D|-77777777-1010101010101010-1212-12-12--|
A|-77777777-8-8-8-8-8-8-8-8--1212-12-12--|
E|-55555555------------------1010-10-10r-|

Chorus 3/Outro
(You gotta find a way, a better way, when I'm there!...)
e|---------------------------------------|
B|---------------------------------------|
G|----------1010101010101010-------------| X8
D|-77777777-1010101010101010-1212-12-12--|
A|-77777777-8-8-8-8-8-8-8-8--1212-12-12--|
E|-55555555------------------1010-10-10r-|
Tap to rate this tab
 
# A B C D E F G H I J K L M N O P Q R S T U V W X Y Z