Song name
# A B C D E F G H I J K L M N O P Q R S T U V W X Y Z

Dover - Cold tab

-------------------------------------------------------------------------------
			     COLD - Dover
-------------------------------------------------------------------------------
Tabbed by:Luis Gustavo Hernández Collado
Email:ltavo_87@hotmail.com

Tuning:EADGBe

Intro
e|---------------------------------|
B|---------------------------------|
G|-------------7---------------7---|
D|---4-7-4---4---7---4-7-4---4---7-|
A|-5-------5-------5-------5-------|
E|---------------------------------|

Verse 1
(Don't hold on to them, don't you fall for them...)
e|--------------------------------------|
B|--------------------------------------|
G|--------------7-7-7-777-7-------------|
D|-7r-(7)(7)(7)-4-4-4-444-4-7-7-7-777-7-|
A|-5r-(5)(5)(5)-5-5-5-555-5-5-5-5-555-5-|
E|--------------------------------------|

e|-------------------------------|
B|-------------------------------|
G|-7-7-777-7---------------------|
D|-4-4-444-4-7-7-777-7-4-4-444-4-|
A|-5-5-555-5-5-5-555-5-5-5-555-5-|
E|-------------------------------|

e|------------------------------------|
B|------------------------------------|
G|---------------------------------7r-|
D|-7-7-777-7-4-4-444-4-7-7-777-4-4-4r-|
A|-5-5-555-5-5-5-555-5-5-5-555-5-5-5r-|
E|------------------------------------|

(Don't ever forget, don't you play with this...)
e|--------------------------------------|
B|--------------------------------------|
G|--------------7-7-7-777-7-------------|
D|-7r-(7)(7)(7)-4-4-4-444-4-7-7-7-777-7-|
A|-5r-(5)(5)(5)-5-5-5-555-5-5-5-5-555-5-|
E|--------------------------------------|

e|-------------------------------|
B|-------------------------------|
G|-7-7-777-7---------------------|
D|-4-4-444-4-7-7-777-7-4-4-444-4-|
A|-5-5-555-5-5-5-555-5-5-5-555-5-|
E|-------------------------------|

e|------------------------------------|
B|------------------------------------|
G|---------------------------------7r-|
D|-7-7-777-7-4-4-444-4-7-7-777-4-4-4r-|
A|-5-5-555-5-5-5-555-5-5-5-555-5-5-5r-|
E|------------------------------------|

Chorus 1
(I'm not cold anymore...)
e|----------------------------------------------|
B|----------------------------------------------|
G|-------------------------------------------7r-|
D|-4-4-7-7-777-4-4-7-7-777-4-4-7-7-777-4r-7r-4r-|
A|-5-5-5-5-555-5-5-7-7-777-5-5-5-5-555-5r-5r-5r-|
E|-----------------5-5-555----------------------|

e|----------------------------------------------|
B|----------------------------------------------|
G|-------------------------------------------7r-|
D|-4-4-7-7-777-4-4-7-7-777---4---4---7---7---4r-|
A|-5-5-5-5-555-5-5-7-7-777-5-5-5-5-5-5-5-5-5-5r-|
E|-----------------5-5-555----------------------|

Verse 2
(Don't hold on to them, don't you fall for them...)
e|--------------------------------------|
B|--------------------------------------|
G|--------------7-7-7-777-7-------------|
D|-7r-(7)(7)(7)-4-4-4-444-4-7-7-7-777-7-|
A|-5r-(5)(5)(5)-5-5-5-555-5-5-5-5-555-5-|
E|--------------------------------------|

e|-------------------------------|
B|-------------------------------|
G|-7-7-777-7---------------------|
D|-4-4-444-4-7-7-777-7-4-4-444-4-|
A|-5-5-555-5-5-5-555-5-5-5-555-5-|
E|-------------------------------|

e|------------------------------------|
B|------------------------------------|
G|---------------------------------7r-|
D|-7-7-777-7-4-4-444-4-7-7-777-4-4-4r-|
A|-5-5-555-5-5-5-555-5-5-5-555-5-5-5r-|
E|------------------------------------|

Chorus 2
(I'm not cold anymore...)
e|----------------------------------------------|
B|----------------------------------------------|
G|-------------------------------------------7r-|
D|-4-4-7-7-777-4-4-7-7-777-4-4-7-7-777-4r-7r-4r-|
A|-5-5-5-5-555-5-5-7-7-777-5-5-5-5-555-5r-5r-5r-|
E|-----------------5-5-555----------------------|

e|----------------------------------------------|
B|----------------------------------------------|
G|-------------------------------------------7r-|
D|-4-4-7-7-777-4-4-7-7-777---4---4---7---7---4r-|
A|-5-5-5-5-555-5-5-7-7-777-5-5-5-5-5-5-5-5-5-5r-|
E|-----------------5-5-555----------------------|

Interlude
e|----------------------------------------------|
B|----------------------------------------------|
G|-------------------------------------------7r-|
D|-4-4-7-7-777-4-4-7-7-777-4-4-7-7-777-4r-7r-4r-|
A|-5-5-5-5-555-5-5-7-7-777-5-5-5-5-555-5r-5r-5r-|
E|-----------------5-5-555----------------------|

e|----------------------------------------------|
B|----------------------------------------------|
G|-------------------------------------------7r-|
D|-4-4-7-7-777-4-4-7-7-777---4---4---7---7---4r-|
A|-5-5-5-5-555-5-5-7-7-777-5-5-5-5-5-5-5-5-5-5r-|
E|-----------------5-5-555----------------------|

Chorus 3
(I'm not cold anymore...)
e|----------------------------------------------|
B|----------------------------------------------|
G|-------------------------------------------7r-|
D|-4-4-7-7-777-4-4-7-7-777-4-4-7-7-777-4r-7r-4r-|
A|-5-5-5-5-555-5-5-7-7-777-5-5-5-5-555-5r-5r-5r-|
E|-----------------5-5-555----------------------|

e|----------------------------------------------|
B|----------------------------------------------|
G|-------------------------------------------7r-|
D|-4-4-7-7-777-4-4-7-7-777---4---4---7---7---4r-|
A|-5-5-5-5-555-5-5-7-7-777-5-5-5-5-5-5-5-5-5-5r-|
E|-----------------5-5-555----------------------|

Verse 3
(Don't hold on to them, don't you trust them...)
e|--------------------------------------|
B|--------------------------------------|
G|--------------7-7-7-777-7-------------|
D|-7r-(7)(7)(7)-4-4-4-444-4-7-7-7-777-7-|
A|-5r-(5)(5)(5)-5-5-5-555-5-5-5-5-555-5-|
E|--------------------------------------|

e|-------------------------------|
B|-------------------------------|
G|-7-7-777-7---------------------|
D|-4-4-444-4-7-7-777-7-4-4-444-4-|
A|-5-5-555-5-5-5-555-5-5-5-555-5-|
E|-------------------------------|

e|------------------------------------|
B|------------------------------------|
G|---------------------------------7r-|
D|-7-7-777-7-4-4-444-4-7-7-777-4-4-4r-|
A|-5-5-555-5-5-5-555-5-5-5-555-5-5-5r-|
E|------------------------------------|

Outro
(Don't do today, what you can do, can do tomorrow.)
e|--------------|
B|--------------|
G|-----------7r-|
D|-7r---4r---4r-|
A|-5r---5r---5r-|
E|--------------|

e|------------|
B|------------|
G|---------7r-|
D|-4-7-4-7----|
A|-5----------|
E|------------|
Tap to rate this tab
# A B C D E F G H I J K L M N O P Q R S T U V W X Y Z