Song name
# A B C D E F G H I J K L M N O P Q R S T U V W X Y Z

Dover - Otherside Acoustic tab

Artist: Dover
Song: Otherside Acoustic
Tabbed: Matt

In this song he plays with a lot of palm mute between the chords, it just to listen very 
to get it, feel it
The last part can be tricky but, first you play normal, then  on “Cause I...” you’ll 
the little part and then one last of the ordinary part. That’s it, try it
Enjoy :D


Intro
-------------------------------------------------|
-------------------------------------------------|
-------------9---9-10-9--------------------------|
9---9---9----9---9-10-9--12-9---9---9---7-7-7----|
9---9---9----7---7-9--7--12-9---9---9---7-7-7----|
7---7---7----------------10-7---7---7---5-5-5----|   x1

Chorus "1"
-------------------------------------------------|
-------------------------------------------------|
-------------9---9-10-9--------------------------|
9---9---9----9---9-10-9--12-9---9---9---7-7-7----|
9---9---9----7---7-9--7--12-9---9---9---7-7-7----|
7---7---7----------------10-7---7---7---5-5-5----|   x3
How long how long will I slide
Separate my side I don't
I don't believe it's bad
Slit my throat, it's all I ever

Verse "2"
-9---9---11-11--|
-9---9---11-11--|
-7---7---9---9--|  x3

7---9--|
7---9--|
5---7--|     x3
I heard your voice through a photograph
I thought it up it brought up the past
Once you know you can never go back
I've got to take it on the Otherside
Take it on the otherside
Take it on Take it on

Last chorus "3"
---------------------------------------------------|     (1)
---------------------------------------------------|
-------------9---9-10-9----------------------------|
9---9---9----9---9-10-9--12-9---9---9---7-7-7------|
9---9---9----7---7-9--7--12-9---9---9---7-7-7------|
7---7---7----------------10-7---7---7---5-5-5------|   x3

9----------------|      (2)
9--12---7--------|
7--12---7--------|
---10---5--------|   x1

---------------------------------------------------|     (3)
---------------------------------------------------|
-------------9---9-10-9----------------------------|
9---9---9----9---9-10-9--12-9---9---9---7-7-7------|
9---9---9----7---7-9--7--12-9---9---9---7-7-7------|
7---7---7----------------10-7---7---7---5-5-5------|   x1

Lyrics

How long how long will I slide       1
Separate my side I don't
I don't believe it's bad
Slit my throat, it's all I ever

I heard your voice through a photograph     2
I thought it up it brought up the past
Once you know you can never go back
I've got to take it on the Otherside
Take it on the otherside
Take it on Take it on

How long how long will I slide       1
Separate my side I don't
I don't believe it's bad
Slit my throat, it's all I ever

Centuries are what it meant to me     2
A cemetery where I marry the sea
Stranger things could never change my mind
I've got to take it on the Otherside
Take it on the otherside
Take it on Take it on

(1) How long how long will I slide        3  look for the numbers to
Separate my side cause I don't               find the right order to
I don't believe it's bad                     play
Slit my throat It's all I ever
(2) Cause I don’t       (3)
I don't believe it's bad
Slit my throat
It's all I ever had
Tap to rate this tab
 
# A B C D E F G H I J K L M N O P Q R S T U V W X Y Z