Song name
# A B C D E F G H I J K L M N O P Q R S T U V W X Y Z

Dover - Cherry Lee tab

-------------------------------------------------------------------------------
			     CHERRY LEE - Dover
-------------------------------------------------------------------------------
Tabbed by:Luis Gustavo Hernández Collado
Email:ltavo_87@hotmail.com

Tuning: EADGBe

Intro/Verse 1
(Two days in my room just waiting for you Cherry...)
e|---2-------3-----2-----4-----|
B|-----3-------3-----3-----5---|
G|-4-----4-0-----2-----2-----4-| X8
D|-----------------------------|
A|-----------------------------|
E|-----------------------------|

Chorus 1
(Cherry Lee! Oh No! You know I need some waranty!...)
e|-------------------|
B|-------------------|
G|-4-4------7-7-9999-| X8
D|-4-4-5555-7-7-9999-|
A|-2-2-5555-5-5-7777-|
E|-----3333----------|

Verse 2
(Three weeks in your room, just waiting for me baby...)
e|---2-------3-----2-----4-----|
B|-----3-------3-----3-----5---|
G|-4-----4-0-----2-----2-----4-| X6
D|-----------------------------|
A|-----------------------------|
E|-----------------------------|

Chorus 2
(Cherry Lee! Oh No! You know I need some waranty!...)
e|-------------------|
B|-------------------|
G|-4-4------7-7-9999-| X8
D|-4-4-5555-7-7-9999-|
A|-2-2-5555-5-5-7777-|
E|-----3333----------|

Interlude/Solo
e|-----2-------3-----2-----4-----|
B|-------3-------3-----3-----5---|
G|-3/4-----4-0/----2-----2/----4-| X4
D|-------------------------------|
A|-------------------------------|
E|-------------------------------|

e|---2-------3-----2-----4-----|
B|-----3-------3-----3-----5---|
G|-4-----4-0-----2-----2-----4-| X6
D|-----------------------------|
A|-----------------------------|
E|-----------------------------|

Chorus 3
(Cherry Lee! Oh No! You know I need some waranty!...)
e|-------------------|
B|-------------------|
G|-4-4------7-7-9999-| X8
D|-4-4-5555-7-7-9999-|
A|-2-2-5555-5-5-7777-|
E|-----3333----------|

Outro
(I want it all...)
Guitar 1
e|-----2-------3-----2-----4-----|
B|-------3-------3-----3-----5---|
G|-3/4-----4-0/----2-----2/----4-| X4
D|-------------------------------|
A|-------------------------------|
E|-------------------------------|

(I want it all...)
Guitar 2
e|-------------------|
B|-------------------|
G|-4-4------7-7-9999-| X4
D|-4-4-5555-7-7-9999-|
A|-2-2-5555-5-5-7777-|
E|-----3333----------|
Tap to rate this tab
 
# A B C D E F G H I J K L M N O P Q R S T U V W X Y Z