Song name
# A B C D E F G H I J K L M N O P Q R S T U V W X Y Z

Dover - Hitter tab

Help us improve GuitareTab! Take a short survey!
-------------------------------------------------------------------------------
			     THE HITTER - Dover
-------------------------------------------------------------------------------
Tabbed by:Luis Gustavo Hernández Collado
Email:ltavo_87@hotmail.com

Tuning:EADGBe

Verse 1
(I was just a hitter on the top of the mountain...)
e|------------------------------------------------|
B|----------9---9---9-----5---5---5-----4---4---4-|
G|-4-44---8-8---8---8---6-6---6---6---4-4---4---4-|X2
D|-x-xx---------x---x---------x---x---------x---x-|
A|-2-22-6-----6-6-6-6-4-----4-4-4-4-2-----2-2-2-2-|
E|------------------------------------------------|

e|----------------|
B|-4-44-9-99-5-55-|
G|-4-44-8-88-6-66-|X2
D|----------------|
A|----------------|
E|----------------|

Chorus 1
(Ooh oh oooh, that was illegal and nobody cares...)
e|------------------------------------------------|
B|----------9---9---9-----5---5---5-----4---4---4-|
G|-4-44---8-8---8---8---6-6---6---6---4-4---4---4-|X4
D|-x-xx---------x---x---------x---x---------x---x-|
A|-2-22-6-----6-6-6-6-4-----4-4-4-4-2-----2-2-2-2-|
E|------------------------------------------------|

Verse 2
(I just had the beater but the beater would leave me...)
e|------------------------------------------------|
B|----------9---9---9-----5---5---5-----4---4---4-|
G|-4-44---8-8---8---8---6-6---6---6---4-4---4---4-|X2
D|-x-xx---------x---x---------x---x---------x---x-|
A|-2-22-6-----6-6-6-6-4-----4-4-4-4-2-----2-2-2-2-|
E|------------------------------------------------|

e|----------------|
B|-4-44-9-99-5-55-|
G|-4-44-8-88-6-66-|X2
D|----------------|
A|----------------|
E|----------------|

Chorus 2
(Ooh oh oooh, that was illegal and nobody cares...)
e|------------------------------------------------|
B|----------9---9---9-----5---5---5-----4---4---4-|
G|-4-44---8-8---8---8---6-6---6---6---4-4---4---4-|X2
D|-x-xx---------x---x---------x---x---------x---x-|
A|-2-22-6-----6-6-6-6-4-----4-4-4-4-2-----2-2-2-2-|
E|------------------------------------------------|

e|---------------------------------------|
B|-----4r--------9r--------5r---------4r-|
G|---4r--------8r--------6r---------4r---|X2
D|---------------------------------------|
A|-2r--------6r--------4r---------2r-----|
E|---------------------------------------|

Interlude
e|------------------------------------------------|
B|----------9---9---9-----5---5---5-----4---4---4-|
G|-4-44---8-8---8---8---6-6---6---6---4-4---4---4-|X2
D|-x-xx---------x---x---------x---x---------x---x-|
A|-2-22-6-----6-6-6-6-4-----4-4-4-4-2-----2-2-2-2-|
E|------------------------------------------------|

Verse 3
(I was just a hitter on the top of the mountain...)
e|------------------------------------------------|
B|----------9---9---9-----5---5---5-----4---4---4-|
G|-4-44---8-8---8---8---6-6---6---6---4-4---4---4-|X2
D|-x-xx---------x---x---------x---x---------x---x-|
A|-2-22-6-----6-6-6-6-4-----4-4-4-4-2-----2-2-2-2-|
E|------------------------------------------------|

e|----------------|
B|-4-44-9-99-5-55-|
G|-4-44-8-88-6-66-|X2
D|----------------|
A|----------------|
E|----------------|

Chorus 3/Outro
(Ooh oh oooh, that was illegal and nobody cares...)
e|------------------------------------------------|
B|----------9---9---9-----5---5---5-----4---4---4-|
G|-4-44---8-8---8---8---6-6---6---6---4-4---4---4-|X4
D|-x-xx---------x---x---------x---x---------x---x-|
A|-2-22-6-----6-6-6-6-4-----4-4-4-4-2-----2-2-2-2-|
E|------------------------------------------------|
Related for Hitter tab