Song name
# A B C D E F G H I J K L M N O P Q R S T U V W X Y Z

Doves - M62 Song tab

-------------------------------------------------------------------------------
			     M62 Song - Doves
-------------------------------------------------------------------------------
Tabbed by: SCM52093
Email:

Tuning: normal
capo on second fret

e|---------------------------------------------------------------------------|
B|------0------------------0-------------------------------------------------|
G|--------------0------------------0-----------------------------------------|x2
D|----------------2------------------2---------------------------------------|
A|------------------2------------------2-------------------------------------|
E|-0----0----0--------0----0----0--------0-----------------------------------|

e|---------------------------------------------------------------------------|
B|------0------------------0-------------------------------------------------|
G|--------------0------------------0-----------------------------------------|
D|----------------0------------------0---------------------------------------|x2
A|------------------2------------------2-------------------------------------|
E|-0----0----0--------0----0----0--------0-----------------------------------|
	…moonshine          			 waiting for a love that never
e|---------------------------------------------------------------------------|
B|--------------------------------------2------------1-----------------------|
G|---------0-------------0-------------------2------------2------------------|
D|---------------2-------------2--------2------------2-----------------------|
A|-0-2-------------------------------0-----0---0--0-----0---0----------------|
E|------0--0---0---0--0--0---0---0-------------------------------------------|
    comes										x2
e|-----------------2p0-------------------------------------------------------|
B|------0--------------0--------2------------1-------------------------------|
G|------------0-----------0----------2------------2--------------------------|
D|------------------------------2------------2-------------------------------|
A|----------2----------------0-----0---0--0-----0---0------------------------|
E|--0---0-------0------------------------------------------------------------|
   waiting..   time..      truth to call..
e|---------------------------------------------------------------------------|
B|-1------------1------------1---3---1---------------------------------------|
G|-------0------------0-------------------2----------------------------------|
D|---------2------------2-------------------2--------------------------------|x2
A|-3--3------3--3--3------3--3---5---0--0-----0------------------------------|
E|---------------------------------------------------------------------------|
	then...
e|---------------------------------------------------------------------------|
B|-1------------1------------1------------1----------------------------------|
G|-------0------------0------------0-----------------------------------------|
D|---------2------------2------------2---------------------------------------|
A|-3--3------3--3--3------3--3--3------3--3----------------------------------|
E|---------------------------------------------------------------------------|

and then repeat everything throughout the song. it mostly runs in the same order the 
time.

| /  slide up
| \  slide down
| h  hammer-on
| p  pull-off
| ~  vibrato
| +  harmonic
| x  Mute note
===============================================================================
Tap to rate this tab
# A B C D E F G H I J K L M N O P Q R S T U V W X Y Z