Song name
# A B C D E F G H I J K L M N O P Q R S T U V W X Y Z

Doves - Fridays Dust tab

Intro:
D#-------------|
B----3-----3---|
G---3-3---3-3--|
D--0---0-0---0-|
A--------------|
E-3-----1------|

Verse:
D#---------------0-----2---|
B----3-----3----3-3---3-3--|
G---3-3---3-3--3---3-2---2-|
D--0---0-0---01-----0------|
A--------------------------|
E-3-----1------------------|


Chorus:
D#------------------------------------------------|
B----3-----3-----2-----3-----3-----3-----2-----2--|
G---0-0---0-0---0-0---0-0---0-0---0-0---0-0---0-0-|
D--0---0-0---0-2---2-0---0-0---0-0---0-2---2-2---2|
A-3-----1-----0-----------3-----1-----0-----0-----|
E-------------------3-----------------------------|

D#------------------------------------|
B----3-----3-----2-----3-----3-----3--|
G---0-0---0-0---0-0---0-0---0-0---0-0-|
D--0---0-0---0-2---2-0---0-0---0-0---0|
A-3-----1-----0-----------3-----1-----|
E-------------------3-----------------|


D#------------------------|
B----2-----2-----2-----2--|
G---0-0---0-0---0-0---0-0-|
D--2---2-2---2-2---2-2---2|
A-0-----0-----0-----0-----|
E-------------------------|


Bridge-thing after 2nd chorus:
D#---------------|        D#-------------|
B----1-----0-----|        B----1--1--1---|
G---0-0---0-0----|        G---0-0--0--0--|
D--1---1-1---1---|   x7   D--1---1--1--1-|
A-3-----3-----3--|        A-3------------|
E----------------|        E--------------|
Tap to rate this tab
 
# A B C D E F G H I J K L M N O P Q R S T U V W X Y Z