Song name
# A B C D E F G H I J K L M N O P Q R S T U V W X Y Z

Doves - M62 Song tab

Doves - M62 song

Intro
  F#m
E-----------|
B-2---------|
G-----2-----|
D---4---4---|
A---------4-|
E-2---------|

Verse
  F#m            A    B         Bm        Fm                B         Bm
E---------------------------------------------------4r2-------------------------|
B-2---------2-----------4---------3---------2-------------2---4---------3-------|
G-----2------------2--------4---------4---------2-------2---------4---------4---|
D---4---4-----4-----------4---4-----4---4-----4---4-------------4---4-----4---4-|
A---------4------0----2---------2-------------------------4-2---------2---------|
E-2---------2-----------------------------2-------------------------------------|

Chorus
  D
E---------------------------------------|
B-3---------3---------3---6---3---------|
G-------2---------2-----------------2---|
D---0-----0---0-----0-----------0-----0-|
A---------------------2---4---2---------|
E---------------------------------------|


Verse

Moonshine, I?m waiting for a love that never comes
Moonshine, wishing for a time that never was


Chorus

I?m waiting for a time, for truth to call
I?m waiting for a sign, to show me all
waiting for my love


Verse

Moonshine, drinking to a love that?s gone on by
Moonshine, look into the stars as cars go by


Chorus

I?m waiting for a time, for truth to call
I?m waiting for a sign, to show me all
waiting for my love

waiting for a love
waiting for my love
waiting for my love
Moonshine, I?m waiting for a love that never comes
Tap to rate this tab
 
# A B C D E F G H I J K L M N O P Q R S T U V W X Y Z