Song name
# A B C D E F G H I J K L M N O P Q R S T U V W X Y Z

Doves - Black And White Town tab


II..Black and White Town..II
II.........Doves..........II
II.......Some Cities......II

This is the black and white town ((Solo))

Tuning: (E A D G B E)

-----------------------------------------------------------------------------|
----11h9p-----11h9p-----11h9p-----11h9p-----11h9p----11h9p-------------------|
----------10--------10--------10--------10--------10-------10---10-10-10-10--|
-----------------------------------------------------------------------------|this part fast
-----------------------------------------------------------------------------|
-----------------------------------------------------------------------------|

9-9/11-11--13-13/16/13--1616p13--13-13p11-13/16--16-16p13--13-13p11-13------|
-----------------------------------------------------------------------14~--|
----------------------------------------------------------------------------|
----------------------------------------------------------------------------|
----------------------------------------------------------------------------|
----------------------------------------------------------------------------|

--------│------------------------------------------------│
13~11~--│--11p9----11p9----11p9----11p9----11p9---11p9---│
--------│-------10------10------10------10------10-----10│
--------│------------------------------------------------│
--------│------------------------------------------------│
--------│------------------------------------------------│

-----8/9-99-----13-13-11-------------------13-13-11-------------------------|
--10---------11----------14-11-11----11-14----------14-11-9~~~(let it ring)-|
----------------------------------------------------------------------------|
----------------------------------------------------------------------------|
----------------------------------------------------------------------------|
----------------------------------------------------------------------------|


Yeah enjoy =)...look out!! there are some parts that goes fast, ok, but the notes are right

TAB: by ""BeNCh!!!""

                           If you have some opinions
            freicon_001@hotmail.com.....RATE!!!!..please...Thanks!!
Tap to rate this tab
# A B C D E F G H I J K L M N O P Q R S T U V W X Y Z