Guitaretab - guitar tabs
Song name
# A B C D E F G H I J K L M N O P Q R S T U V W X Y Z

Doves - Firesuite tab

-----------------------------------------------------
		FIRESUITE- The Doves
-----------------------------------------------------
Tabbed by: stef
Email: stef_tan-dodsnbev@powerup.com.au

Tuning: standard

It sounds better if you only play the middle four strings in the rhythm section;
(the first two times you play E as it starts up I would only play the A,D,G strings)

 	E	C#m	C#m	F#
[ Tab from: http://www.guitaretab.com/d/doves/61624.html ]
e|----(0)------(4)-----(4)----(2)------------------------|
B|-----0--------5-------5------2-------------------------|
G|-----1--------6-------6------3-------------------------|
D|-----2--------6-------6------4-------------------------|
A|-----2--------4-------4------4-------------------------|
E|----(0)-------x-------x-----(2)------------------------|


Then with a tremelo bar:
(with a bit of reverb & a whole lot of attitude)

e|---------------------------------------------------|
B|--0~------2~---------------------------------------|
G|----1~1~------------------------------------------|
D|---------------------------------------------------|
A|---------------------------------------------------|
E|---------------------------------------------------|

Bring it on!
Related for Firesuite tab